Who - Teenage Wasteland Chords & Tabs

 

Teenage Wasteland Chords & Tabs

Who Chords & Tabs

Version: 3 Type: Tab 0 ratings
1 star 2 stars 3 stars 4 stars 5 stars
comments

Teenage Wasteland Tab

   
Artist:The Who
Song:Teenage Wasteland
Tabber: Ethan Wallace
Date:Monday June 6th 2005

Intro:

F C Bb

E--8     E--8     E--6-|
B--8     B--8     B--6-|
G--10 F  G--8  C  G--6-|  Bb
D--10    D--10    D--8-|
A--8     A--10    A--8-|
E--8     E--8     E--6-|

First Solo

E--14-14------------------14-16-14-17-14-14--------------------------|
B---------14-14/16-16-16--------------------16-14--------------------|
G--------------------------------------------------------------------|
D--------------------------------------------------------------------|
A--------------------------------------------------------------------|
E--------------------------------------------------------------------|

E--------------------------------------------------------------------|
B-16p14h16-14-13/14-13/14-13/14-13/14-13/14-13/14-13/14/11/7---------|
G--------------------------------------------------------------------|
D--------------------------------------------------------------------|
A--------------------------------------------------------------------|
E--------------------------------------------------------------------|
=20
E--------------------------------------------------------------------|
B--13/14-13/14--13/14-13/14--12-11-12-11-7---------------------------|
G--------------------------------------------------------------------|
D--------------------------------------------------------------------|
A--------------------------------------------------------------------|
E--------------------------------------------------------------------|

Ending Solo

E-13-14-16--13-14-16--131416--13-14-16--13-14-16--131416-------------|
B--------------------------------------------------------------------|
G--------------------------------------------------------------------|
D--------------------------------------------------------------------|
A--------------------------------------------------------------------|
E--------------------------------------------------------------------|
[ Tab from: http://www.guitartabs.cc/tabs/w/who/teenage_wasteland_tab_ver_3.html ]
E-13-14-16--13-14-16--131416--13-14-16--13-14-16--13-14--------------|
B--------------------------------------------------------------------|
G--------------------------------------------------------------------|
D--------------------------------------------------------------------|
A--------------------------------------------------------------------|
E--------------------------------------------------------------------|


E-12-14-16-12-14-16--1214156---|
B------------------------------|
G------------------------------|
D------------------------------|
A------------------------------|
E------------------------------|

E-13-14-13-14-13-14-13-14-13-14-13-14-13-14-13-----|
B----------------------------------------------14--|
G--------------------------------------------------|
D--------------------------------------------------|
A--------------------------------------------------|
E--------------------------------------------------|

E-13-14-13-14-13-14-13-14-13-14-13-14-13-14-13-16-13-14-14--------------|
B-----------------------------------------------------------------------|
G-----------------------------------------------------------------------|
D-----------------------------------------------------------------------|
A-----------------------------------------------------------------------|
E-----------------------------------------------------------------------|

E-14-16-14-16-14-16-14-16-14-16-14-16-14-13-|
B-------------------------------------------|
G-------------------------------------------|
D-------------------------------------------|
A-------------------------------------------|
E-------------------------------------------|

E--14-13-14-13-14-13-14-13-14-13-14-13-14-------|
B-----------------------------------------------|
G-----------------------------------------------|
D-----------------------------------------------|
A-----------------------------------------------|
E-----------------------------------------------|

E-13b-------------------------|
B-----14---13/14-13/14--13/14-|
G-----------------------------|
D-----------------------------|
A-----------------------------|
E-----------------------------|

E-------------------------------------------------------------|
B--14141414141414141414141414141414141414141414141414-12-11---|
G-------------------------------------------------------------|
D-------------------------------------------------------------|
A-------------------------------------------------------------|
E-------------------------------------------------------------|

E-------------------------------|
B-6-4---------------------------|
G-----3-3-2---------------------|
D------------3-1-0-----3--------|
A-------------------------------|
E-------------------8/2---------|
Comments