Who - Teenage Wasteland Chords & Tabs

 

Teenage Wasteland Chords & Tabs

Who Chords & Tabs

Version: 2 Type: Tab 0 ratings
1 star 2 stars 3 stars 4 stars 5 stars
comments

Teenage Wasteland Tab

Hey this is my like 5th tab, ive spent hours tabbing this, i tried to get the notes of
that wierd soundin flute thing at the end. Its my best.

E|---------------|
B|---------------|    Ok, this easy tune is played until the ocapelo wehn he 
G|-10~--8----6---|starts singin the teenage wasteleand part, then after that 
D|-10~--10---8---| it picks back up. Listen to the song, you`ll get it.
A|-8~---10---8---|
E|-8~---8----6---|

 now heres the solo bit
[ Tab from: http://www.guitartabs.cc/tabs/w/who/teenage_wasteland_tab_ver_2.html ]
E|------13~-13-8-10-1010--10-13-10--17-15-13-10-13h15p13--12b x7|
B|--------------------------------------------------------------|
G|--------------------------------------------------------------|
D|--------------------------------------------------------------|
A|--------------------------------------------------------------|
E|--------------------------------------------------------------|

k no heres the bit where it hits it and stops it

E|----------------------------------------------------|
B|----------------------------------------------------|
G|10-10--8-8--10~-8~-8~--6~-10~-8~-8~--6~-10~-10~-8~--|
D|10-10--8-8--10~-8~-10~-8~-10~-8~-10~-8~-10~-10~-8~--|
A|8--8---6-6--8~--6~-10~-8~-8~--6~-10~-8~-8~--8~--6~--|
E|8--8---6-6--8~--6~-8~--6~-8~--6~-8~--6~-8~--8~--6~--|

Well thats as far as i got, illt ry to pick it back up, plz gimme fead back, TY
Comments