Who - Teenage Wasteland Chords & Tabs

 

Teenage Wasteland Chords & Tabs

Who Chords & Tabs

Version: 1 Type: Tab 0 ratings
1 star 2 stars 3 stars 4 stars 5 stars
comments

Teenage Wasteland Tab

Teenage Wasteland (Baba O'Riley)
By: The Who

This song is really easy, including the solo. I've seen other tabs for the chords for 
song simly as F, C, B. However that is wrong. Here the tabs for the correct chords in 
Wasteland.

e------8------|
B------8------|
G------10-----|
D------10-----|
A------8------|
E------8------|

e------8------|
B------8------|
G------8------|
D------10-----|
A------10-----|
E------8------|

e------6------|
B------6------|
G------8------|
D------8------|
A------6------|
E------6------|

those are the three chords Pete plays in this song over and over. Listen to the song for 
and beat.

The solo is pretty simple:
~ = vibrate
/ = slide
h = hammer on (veyr quickly)
[ Tab from: http://www.guitartabs.cc/tabs/w/who/teenage_wasteland_tab.html ]
e--12~--12---------------12-15-12-17-12-15-12--------------------------|
B----------12-12/15-15-----------------------15-12-12h15---------------|
G--------------------------------------------------------15-15-(7x)----|
D----------------------------------------------------------------------|
A----------------------------------------------------------------------|
E----------------------------------------------------------------------|

then...

e----------------------------|
B--/14-/14-/14-/14-/14-14----|
G----------------------------|
D----------------------------|
A----------------------------|
E----------------------------|

the ending is simple:

e---15-12-13-15-12-13-|1512-13--------------------------------------------|
B---------------------|---------------------------------------------------|
G---------------------|--------------(JUST REPEAT THIS UNTIL THE END------|
D---------------------|---------------------------------------------------|
A---------------------|---------------------------------------------------|
E---------------------|---------------------------------------------------|

NOTE:
1) In the ending, you can hear where Pete speeds up (thats where 1512 13)
2) For the three chords, make sure your guitar is on the first coil pickup for a deep 
and amp has some bass in it
3) For solo, switch coil pickup to combination
4) Remember practice this song and you will become better at it

Im only 14. If you don't think that this tab is correct, I asure you it more correct 
the other tabs for this song in this website.

THATS IT. HAVE FUN

-Jello
Comments