Who - Summertime Blues Chords & Tabs

 

Summertime Blues Chords & Tabs

Who Chords & Tabs

Version: 1 Type: Tab 0 ratings
1 star 2 stars 3 stars 4 stars 5 stars
comments

Summertime Blues Tab

   
This is Summertime Blues by the Who. I saw that there was no correct tab on here, so I
figured it out myself. It's in standard tuning. Have fun with it.
b=bend, .=stacatto

Intro:
    A5  D5  E5 D5 C5 A5       D5 E5 D5 C5 A5
e----------------------------------------------------------|
b----------------------------------------------------------|
g--------7--9--7--5-----------7--9--7--5-------------------|
d--x777--7--9--7--5--7-77777--7--9--7--5-7xxx7x7x7x7-------|
a--x777--5--7--5--3--7-77777--5--7--5--3-7xxx7x7x7x7-------|
e--x555--------------5-55555-------------5xxx5x5x5x5-------|

Verse:
    A5
e------------------------------------------|
b------------------------------------------|
g--------------------------7--9--7--5------|
d--x7xxx7xx7x--------x777--7--9--7--5---7--|
a--x7xxx7xx7x--------x777--5--7--5--3---7--|
e--x5xxx5xx5x--------x555---------------5--|
   (W/ vocals)           (At pause)
[ Tab from: http://www.guitartabs.cc/tabs/w/who/summertime_blues_tab.html ]
Chorus:
  D5 E5     A5   D5
e---------------------------|
b---------------------------|
g--7--9----------7----------|
d--7--9------7---7----------|
a--5--7------7---5----------|
e------------5--------------|
             .

repeat intro,
repeat verse,
repeat chorus,

Solo:
               g e f# d
e----------------------------------------------------------------------------|
b-------------14-7-13-5--------------------------------------------5---------|
g-12b-9-11b-7-12-9-11-7-7777777777777-7-7-5----------------------7---7--5----|
d-------------------------------------------7-7p5-7p5-7p5---x777-----------7-|
a---------------------------------------------------------7------------------|
e----------------------------------------------------------------------------|

Interlude:
   A5   E5  D5  E5  A5
e-------------------------|
b-------------------------|
g--------9--77--9--14-----|
d--x777--9--77--9--14-----|
a--x777--7--55--7--12-----|
e--x555-------------------|

repeat verse,
repeat chorus,
repeat intro

Thats about it, rock on!
Comments