Who - Substitute Chords & Tabs

 

Substitute Chords & Tabs

Who Chords & Tabs

Version: 3 Type: Tab 0 ratings
1 star 2 stars 3 stars 4 stars 5 stars
comments

Substitute Tab

   
---------------------------------------------------------------------

    THE WHO - SUBSTITUTE (Townsend) Released as a single on 5th April 
              1966 with WALTZ FOR A PIG as the B side.
 
---------------------------------------------------------------------

    Tabbed by:PJVillanueva






You think we look pretty good together
You think my shoes are made of leather

But I'm a substitute for another guy
I look pretty tall but my heels are high
The simple things you see are all complicated
I look pretty young, but I'm just back-dated, yeah

Substitute your lies for fact
I see right through your plastic mac
I look all white, but my dad was black
My fine looking suit is really made out of sack

I was born with a plastic spoon in my mouth
The north side of my town faced east, and the east was facing south
And now you dare to look me in the eye
Those crocodile tears are what you cry
It's a genuine problem, you won't try
To work it out at all you just pass it by, pass it by

Substitute me for him
Substitute my coke for gin
Substitute you for my mum
Substitute at least I'll get my washing done 
Substitute your lies for fact
Substitute see right through your plastic mac
Substitute I look all white but my dad was black
Substitute my fine looking suit's really made out of sack            




    

    Tune E string down to D for the guitar solo


 

                                      
  D               Dmaj9       G               D 
e|2------ ------- 0------ ----3--|----3-- ----2-- 2------ -------|
B|3-------3-------2-----------3--|----3-------3---3--------------|
G|2-------2-------2-----------4--|----4-------2---2--------------|
D|0-------0-------0-----------0--|----0-------0---0--------------|
A|-------------------------------|-------------------------------|
E|-------------------------------|-------------------------------|


                                                      X X X   X
  D               Dmaj9       G               D 
e|2------ ------- 0------ ----3--|----3-- ----2-- 2------ -------|
B|3-------3-------2-----------3--|----3-------3---3--------------|
G|2-------2-------2-----------4--|----4-------2---2--------------|
D|0-------0-------0-----------0--|----0-------0---0--------------|
A|-------------------------------|-------------------------------|
E|-------------------------------|-------------------------------|



          D
e|------- 2------ ------- 2------|------- 2------ ------- 2------|
B|--------3---------------3------|--------3---------------3------|
G|--------2---------------2------|--------2---------------2------|
D|--------0---------------0------|--------0---------------0------|
A|-------------------------------|-------------------------------|
E|-------------------------------|-------------------------------|




e|------- 2------ ------- 2------|------- 2------ ------- 2------|
B|--------3---------------3------|--------3---------------3------|
G|--------2---------------2------|--------2---------------2------|
D|--------0---------------0------|--------0---------------0------|
A|-------------------------------|-------------------------------|
E|-------------------------------|-------------------------------|



                                          G
e|------- 2------ ------- 2------|------- 3------ ------- 3------|
B|--------3---------------3------|--------3---------------3------|
G|--------2---------------2------|--------0---------------0------|
D|--------0---------------0------|--------0---------------0------|
A|-------------------------------|--------2---------------2------|
E|-------------------------------|--------3---------------3------|
          You     think   we      look    pretty  good    together   

                                                  X x x x x
          D
e|------- 2------ ------- 2------|------- 2------ ------- 2------|
B|--------3---------------3------|--------3---------------3------|
G|--------2---------------2------|--------2---------------2------|
D|--------0---------------0------|--------0---------------0------|
A|-------------------------------|-------------------------------|
E|-------------------------------|-------------------------------|



                                          G
e|------- 2------ ------- 2------|------- 3------ ------- 3------|
B|--------3---------------3------|--------3---------------3------|
G|--------2---------------2------|--------0---------------0------|
D|--------0---------------0------|--------0---------------0------|
A|-------------------------------|--------2---------------2------|
E|-------------------------------|--------3---------------3------|
          You     think   my      shoes       are made    of  leather        


          D
e|------- 2------ ------- 2------|------- 2------ ------- 2---2--|
B|--------3---------------3------|--------3---------------3---3--|
G|--------2---------------2------|--------2---------------2---2--|
D|--------0---------------0------|--------0---------------0---0--|
A|-------------------------------|-------------------------------|
E|-------------------------------|-------------------------------|
                                                      But I'm a 


          Em
e|------- 0------ ------- -------|------- 0------ ------- -------|
B|--------0----------------------|--------0----------------------|
G|--------0----------------------|--------0----------------------|
D|2-------2-------------------0--|2-------2-------------------0--|
A|2-------2---------------0H2----|2-------2---------------0H2----|
E|0-------0-------3--------------|0-------0-------3-------3------|
  substitute              for another         guy              I 



e|------- 0------ ------- -------|------- 0------ ------- -------|
B|--------0----------------------|--------0----------------------|
G|--------0----------------------|--------0----------------------|
D|2-------2-------------------0--|2-------2-------------------0--|
A|2-------2---------------0H2----|2-------2---------------0H2----|
E|0-------0-------3--------------|0-------0-------3-------3------|
  look    pretty  tall    but my  heels   are high            The 



e|------- 0------ ------- -------|------- 0------ ------- -------|
B|--------0----------------------|--------0----------------------|
G|--------0----------------------|--------0----------------------|
D|2-------2-------------------0--|2-------2-------------------0--|
A|2-------2---------------0H2----|2-------2---------------0H2----|
E|0-------0-------3--------------|0-------0-------3-------3------|
  simple  things                  complicated                 I
              you see are all


e|------- 0------ ------- -------|------- 0------ ------- -------|
B|--------0----------------------|--------0----------------------|
G|--------0----------------------|--------0----------------------|
D|2-------2-------------------0--|2-------2-------------------0--|
A|2-------2---------------0H2----|2-------2---------------0H2----|
E|0-------0-------3--------------|0-------0-------3-------3------|
  look    pretty  young,  but I'm just    back  - dated,      yeah

                                      x x x x x x x   x   X   X
  A
e|0---0-- 0------ ----0-- 0---0--|0------ ------- ------- -------|
B|2---2---2-----------2---2---2--|2------------------------------|
G|2---2---2-----------2---2---2--|2------------------------------|
D|2---2---2-----------2---2---2--|2------------------------------|
A|0---0---0-----------0---0---0--|0------------------------------|
E|-------------------------------|-------------------------------|



  D               Dmaj9       G               D
e|2------ ------- 0------ ----3--|----3-- ----2-- 2------ -------|
B|3-------3-------2-----------3--|----3-------3---3--------------|
G|2-------2-------2-----------4--|----4-------2---2--------------|
D|0-------0-------0-----------0--|----0-------0---0--------------|
A|-------------------------------|-------------------------------|
E|-------------------------------|-------------------------------|
                          Your    lies        for fact        I
 (Substitute)

  D               Dmaj9       G               D
e|2------ ------- 0------ ----3--|----3-- ----2-- 2------ -------|
B|3-------3-------2-----------3--|----3-------3---3--------------|
G|2-------2-------2-----------4--|----4-------2---2--------------|
D|0-------0-------0-----------0--|----0-------0---0--------------|
A|-------------------------------|-------------------------------|
E|-------------------------------|-------------------------------|
  see     right   through your    plastic     mac             I
 (Substitute)

  D               Dmaj9       G               D
e|2------ ------- 0------ ----3--|----3-- ----2-- 2------ -------|
B|3-------3-------2-----------3--|----3-------3---3--------------|
G|2-------2-------2-----------4--|----4-------2---2--------------|
D|0-------0-------0-----------0--|----0-------0---0--------------|
A|-------------------------------|-------------------------------|
E|-------------------------------|-------------------------------|
  look all    white,  but my      dad was     black           My
 (Substitute)

  D               Dmaj9       G               D
e|2------ ------- 0------ ----3--|----3-- ----2-- 2------ -------|
B|3-------3-------2-----------3--|----3-------3---3--------------|
G|2-------2-------2-----------4--|----4-------2---2--------------|
D|0-------0-------0-----------0--|----0-------0---0--------------|
A|-------------------------------|-------------------------------|
E|-------------------------------|-------------------------------|
  fine looking suit   is  really  made out of sack
 (Substitute)
                              x   x   X   X   X

e|------- ------- ------- -------|------- -------|
B|-------------------------------|---------------|
G|-------------------------------|---------------|
D|-------------------------------|---------------|
A|-------------------------------|---------------|
E|-------------------------------|---------------|                    
                                                                              


          D                               G 
e|------- 2------ 2------ 2------|------- 3------ 3------ 3------|
B|--------3-------3-------3------|--------3-------3-------3------|
G|--------2-------2-------2------|--------0-------0-------0------|
D|--------0-------0-------0------|--------0-------0-------0------|
A|-------------------------------|--------2-------2-------2------|
E|-------------------------------|--------3-------3-------3------|
          I   was born    with a  plastic         spoon   in    


          D                  
e|2------ 2------ 2------ 2---2--|2------ 2---2-- 2------ 2---2--|
B|3-------3-------3-------3---3--|3-------3---3---3-------3---3--|
G|2-------2-------2-------2---2--|2-------2---2---2-------2---2--|
D|0-------0-------0-------0---0--|0-------0---0---0-------0---0--|
A|-------------------------------|-------------------------------|
E|-------------------------------|-------------------------------|
  my          mouth                                            The 


                                          G
e|2------ 2---2-- 2------ 2------|------- 3------ 3------ 3------|
B|3-------3---3---3-------3------|--------3-------3-------3------|
G|2-------2---2---2-------2------|--------0-------0-------0------|
D|0-------0---0---0-------0------|--------0-------0-------0------|
A|-------------------------------|--------2-------2-------2------|
E|-------------------------------|--------3-------3-------3------|
  north   side of my  town   faced  east, and the east    was facing      


          D
e|2------ 2---2-- 2------ 2---2--|2------ 2---2-- 2------ 2------|
B|3-------3---3---3-------3---3--|3-------3---3---3-------3------|
G|2-------2---2---2-------2---2--|2-------2---2---2-------2------|
D|0-------0---0---0-------0---0--|0-------0---0---0-------0------|
A|-------------------------------|-------------------------------|
E|-------------------------------|-------------------------------|
              south                                   And now you 

                                                                         
          Em
e|------- 0------ ------- -------|------- 0------ ------- -------|
B|--------0----------------------|--------0----------------------|
G|--------0----------------------|--------0----------------------|
D|2-------2----------------------|2-------2-------------------0--|
A|2-------2---------------0H2----|2-------2---------------0H2----|
E|0-------0-------3--------------|0-------0-------3-------3------|
  dare    to look     me      in      the     eye             Those       
e|0------ 0------ ------- 2---2--|0------ 0------ ------- 2---2--|
B|0-------0---------------3---3--|0-------0---------------3---3--|
G|0-------0---------------2---2--|0-------0---------------2---2--|
D|2-------2---------------0---0--|2-------2---------------0---0--|
A|2-------2----------------------|2-------2----------------------|
E|0-------0----------------------|0-------0----------------------|
                                                         



e|------- 0------ ------- -------|------- 0------ ------- -------|
B|--------0----------------------|--------0----------------------|
G|--------0----------------------|--------0----------------------|
D|2-------2-------------------0--|2-------2-------------------0--|
A|2-------2---------------0H2----|2-------2---------------0H2----|
E|0-------0-------3--------------|0-------0-------3-------3------|
  crocodile       tears   are     what you    cry         It's a 
e|0------ 0------ ------- 2---2--|0------ 0------ ------- 2---2--|
B|0-------0---------------3---3--|0-------0---------------3---3--|
G|0-------0---------------2---2--|0-------0---------------2---2--|
D|2-------2---------------0---0--|2-------2---------------0---0--|
A|2-------2----------------------|2-------2----------------------|
E|0-------0----------------------|0-------0----------------------|
  



e|------- 0------ ------- -------|------- 0------ ------- -------|
B|--------0----------------------|--------0----------------------|
G|--------0----------------------|--------0----------------------|
D|2-------2-------------------0--|2-------2-------------------0--|
A|2-------2---------------0H2----|2-------2---------------0H2----|
E|0-------0-------3--------------|0-------0-------3-------3------|
   genuine         problem,    you     won't   try              to
e|0------ 0------ ------- 2---2--|0------ 0------ ------- 2---2--|
B|0-------0---------------3---3--|0-------0---------------3---3--|
G|0-------0---------------2---2--|0-------0---------------2---2--|
D|2-------2---------------0---0--|2-------2---------------0---0--|
A|2-------2----------------------|2-------2----------------------|
E|0-------0----------------------|0-------0----------------------|
  



e|------- 0------ ------- -------|------- 0------ ------- -------|
B|--------0----------------------|--------0----------------------|
G|--------0----------------------|--------0----------------------|
D|2-------2-------------------0--|2-------2-------------------0--|
A|2-------2---------------0H2----|2-------2---------------0H2----|
E|0-------0-------3--------------|0-------0-------3-------3------|
  work it out at  all you just    pass it     by,     pass    it 
e|0------ 0------ ------- 2---2--|0------ 0------ ------- 2---2--|
B|0-------0---------------3---3--|0-------0---------------3---3--|
G|0-------0---------------2---2--|0-------0---------------2---2--|
D|2-------2---------------0---0--|2-------2---------------0---0--|
A|2-------2----------------------|2-------2----------------------|
E|0-------0----------------------|0-------0----------------------|
    

                                      x   x   x   x   x   X   X
  A
e|0---0-- 0------ ----0-- 0---0--|0------ 0---0-- 0---0-- ----0--|
B|2---2---2-----------2---2---2--|2-------2---2---2---2-------2--|
G|2---2---2-----------2---2---2--|2-------2---2---2---2-------2--|
D|2---2---2-----------2---2---2--|2-------2---2---2---2-------2--|
A|0---0---0-----------0---0---0--|0-------0---0---0---0-------0--|
E|-------------------------------|-------------------------------|
  by


  D               Dmaj9       G               D
e|2------ ------- 0------ ----3--|----3-- ----2-2 2------ -------|
B|3-------3-------2-----------3--|----3-------3-3-3--------------|
G|2-------2-------2-----------4--|----4-------2-2-2--------------|
D|0-------0-------0-----------0--|----0-------0-0-0--------------|
A|-------------------------------|-------------------------------|
E|-------------------------------|-------------------------------|
                                  Me          for him
 (Substitute)

  D               Dmaj9       G               D
e|2------ ------- 0------ ----3--|----3-- ----2-- 2------ -------|
B|3-------3-------2-----------3--|----3-------3---3--------------|
G|2-------2-------2-----------4--|----4-------2---2--------------|
D|0-------0-------0-----------0--|----0-------0---0--------------|
A|-------------------------------|-------------------------------|
E|-------------------------------|-------------------------------|
                              my  coke        for gin
 (Substitute)

  D               Dmaj9       G               D
e|2------ ------- 0------ ----3--|----3-- ----2-- 2------ -------|
B|3-------3-------2-----------3--|----3-------3---3--------------|
G|2-------2-------2-----------4--|----4-------2---2--------------|
D|0-------0-------0-----------0--|----0-------0---0--------------|
A|-------------------------------|-------------------------------|
E|-------------------------------|-------------------------------|
                          you     for     my      mum         At 
 (Substitute)
                                                  X   X   x   x
  D               Dmaj9       G               D
e|2------ ------- 0------ ----3--|----3-- ----2-2 2------ -------|
B|3-------3-------2-----------3--|----3-------3-3-3--------------|
G|2-------2-------2-----------4--|----4-------2-2-2--------------|
D|0-------0-------0-----------0--|----0-------0-0-0--------------|
A|-------------------------------|-------------------------------|
E|-------------------------------|-------------------------------|
  least   I'll    get     my      washing     done 
 (Substitute)

  X   X   x   x   X   X   x   X X x x x x X   X

e|------- ------- ------- -------|------- -------|
B|-------------------------------|---------------|
G|-------------------------------|---------------|
D|-------------------------------|---------------|
A|-------------------------------|---------------|
E|-------------------------------|---------------|



  D                               G
e|2------ 2------ 2------ 2---2--|3------ 3------ 3------ 3---3--|
B|3-------3-------3-------3---3--|3-------3-------3-------3---3--|
G|2-------2-------2-------2---2--|0-------0-------0-------0---0--|
D|0-------0-------0-------0---0--|0-------0-------0-------0---0--|
A|-------------------------------|2-------2-------2-------2---2--|
E|-------------------------------|3-------3-------3-------3---3--|
     
e|------- ------- ------- -------|------- ------- ------- -------|
B|-------------------------------|-------------------------------|
G|-------------------------------|-------------------------------|
D|-------------------------------|-------------------------------|
A|-------------------------------|----------------2-------3---2--|
E|0---0---0----0--4---0---5---4--|5---5---5---5-------5----------|



  D
e|2------ 2------ 2---2-- 2---2--|2------ 2------ 2---2-- 2---2--|
B|3-------3-------3---3---3---3--|3-------3-------3---3---3---3--|
G|2-------2-------2---2---2---2--|2-------2-------2---2---2---2--|
D|0-------0-------0---0---0---0--|0-------0-------0---0---0---0--|
A|-------------------------------|-------------------------------|
E|-------------------------------|-------------------------------|

e|------- ------- ------- -------|------- ------- ------- -------|
B|-------------------------------|-------------------------------|
G|-------------------------------|-------------------------------|
D|-------------------------------|-------------------------------|
A|-------------------------------|-------------------------------|
E|0---0---0----0--4---0---5---4--|0---0---5---0---4---0---5---4--|
              

[ Tab from: http://www.guitartabs.cc/tabs/w/who/substitute_tab_ver_3.html ]
                                  G
e|2---2-- 2------ 2------ 2------|3------ 3------ 3---3-- 3---3--|
B|3---3---3-------3-------3------|3-------3-------3---3---3---3--|
G|2---2---2-------2-------2------|0-------0-------0---0---0---0--|
D|0---0---0-------0-------0------|0-------0-------0---0---0---0--|
A|-------------------------------|2-------2-------2---2---2---2--|
E|-------------------------------|3-------3-------3---3---3---3--|

e|------- ------- ------- -------|------- ------- ------- -------|
B|-------------------------------|-------------------------------|
G|-------------------------------|-------------------------------|
D|-------------------------------|-------------------------------|
A|-------------------------------|--------3-------2-------3---2--|
E|0---0---5----0--4---0---5---4--|5---5-------5-------5----------|
     


  D
e|2------ 2------ 2------ 2---2--|2------ 2------ 2---2-- 2------|
B|3-------3-------3-------3---3--|3-------3-------3---3---3------|
G|2-------2-------2-------2---2--|2-------2-------2---2---2------|
D|0-------0-------0-------0---0--|0-------0-------0---0---0------|
A|-------------------------------|-------------------------------|
E|-------------------------------|-------------------------------|
                                                          I'm a
e|------- ------- ------- -------|------- ------- ------- -------|
B|-------------------------------|-------------------------------|
G|-------------------------------|-------------------------------|
D|-------------------------------|-------------------------------|
A|-------------------------------|-------------------------------|
E|0---0---5---0---4---0---5---4--|0---0---5---0---4---0---5---4--|



          Em
e|------- 0------ ------- -------|------- 0------ ------- -------|
B|--------0----------------------|--------0----------------------|
G|--------0----------------------|--------0----------------------|
D|2-------2-------------------0--|2-------2-------------------0--|
A|2-------2---------------0H2----|2-------2---------------0H2----|
E|0-------0-------3--------------|0-------0-------3-------3------|
  substitute              for another         guy              I 
e|------- 0------ ------- 2------|0------ 0------ ------- 0---2--|
B|--------0---------------3------|0-------0---------------0---3--|
G|--------0---------------2------|0-------0---------------0---2--|
D|--------2---------------0------|2-------2---------------2---0--|
A|--------2----------------------|2-------2---------------2------|
E|--------0----------------------|0-------0---------------0------|
  



e|------- 0------ ------- -------|------- 0------ ------- -------|
B|--------0----------------------|--------0----------------------|
G|--------0----------------------|--------0----------------------|
D|2-------2-------------------0--|2-------2-------------------0--|
A|2-------2---------------0H2----|2-------2---------------0H2----|
E|0-------0-------3--------------|0-------0-------3-------3------|
  look    pretty  tall    but my  heels   are high            The 
e|------- 0------ ------- 2------|0------ 0------ 0------ 0---2--|
B|--------0---------------3------|0-------0-------0-------0---3--|
G|--------0---------------2------|0-------0-------0-------0---2--|
D|--------2---------------0------|2-------2-------2-------2---0--|
A|--------2----------------------|2-------2-------2-------2------|
E|--------0----------------------|0-------0-------0-------0------|
  



e|------- 0------ ------- -------|------- 0------ ------- -------|
B|--------0----------------------|--------0----------------------|
G|--------0----------------------|--------0----------------------|
D|2-------2-------------------0--|2-------2-------------------0--|
A|2-------2---------------0H2----|2-------2---------------0H2----|
E|0-------0-------3--------------|0-------0-------3-------3------|
  simple  things                  complicated                 I
              you see are all
e|0------ 0------ 0------ 2------|0------ 0------ ------- 2------|
B|0-------0-------0-------3------|0-------0---------------3------|
G|0-------0-------0-------2------|0-------0---------------2------|
D|2-------2-------2-------0------|2-------2---------------0------|
A|2-------2-------2--------------|2-------2----------------------|
E|0-------0-------0--------------|0-------0----------------------|
  



e|------- 0------ ------- -------|------- 0------ ------- -------|
B|--------0----------------------|--------0----------------------|
G|--------0----------------------|--------0----------------------|
D|2-------2-------------------0--|2-------2-------------------0--|
A|2-------2---------------0H2----|2-------2---------------0H2----|
E|0-------0-------3--------------|0-------0-------3-------3------|
  look    pretty  young,  but I'm just    back  - dated,      yeah
e|------- 0------ ------- 2------|------- 0------ ------- 0------|
B|--------0---------------3------|--------0---------------0------|
G|--------0---------------2------|--------0---------------0------|
D|--------2---------------0------|--------2---------------2------|
A|--------2----------------------|--------2---------------2------|
E|--------0----------------------|--------0---------------0------|
  

                                      x x x x x x x   x   X   X
  A
e|0------ 0---0-0 0---0-- ----000|0------ 0------ ----0-- ----0--|
B|2-------2---2-2-2---2-------222|2-------2-----------2-------2--|
G|2-------2---2-2-2---2-------222|2-------2-----------2-------2--|
D|2-------2---2-2-2---2-------222|2-------2-----------2-------2--|
A|0-------0---0-0-0---0-------000|0-------0-----------0-------0--|
E|-------------------------------|-------------------------------|



  D               Dmaj9       G               D
e|5------ ------- 5------ ----3--|----3-- ----2-- 2------ x---x--|      
B|7-------7-------5-----------3--|----3-------3---3-------x---x--|
G|7-------7-------6-----------4--|----4-------2---2-------x---x--|
D|0-------0-------0-----------0--|----0-------0---0-------x---x--|
A|-------------------------------|-------------------------------|
E|-------------------------------|-------------------------------|


                                                          x  X x
  D               Dmaj9       G               D
e|5------ ------- 5------ ----3--|----3-- ----2-- 2------ x---x--|
B|7-------7-------5-----------3--|----3-------3---3-------x---x--|
G|7-------7-------6-----------4--|----4-------2---2-------x---x--|
D|0-------0-------0-----------0--|----0-------0---0-------x---x--|
A|-------------------------------|-------------------------------|
E|-------------------------------|-------------------------------|


  X                                                 x x x X   x x
  D               Dmaj9       G               D
e|5------ ------- 5------ ----3--|----3-- ----2-- 2------ x---x--|
B|7-------7-------5-----------3--|----3-------3---3-------x---x--|
G|7-------7-------6-----------4--|----4-------2---2-------x---x--|
D|0-------0-------0-----------0--|----0-------0---0-------x---x--|
A|-------------------------------|-------------------------------|
E|-------------------------------|-------------------------------|


  X                                              (.
  D               Dmaj9       G               D
e|5------ ------- 5------ ----3--|----3-- ----2-- 2------ -------|
B|7-------7-------5-----------3--|----3-------3---3--------------|
G|7-------7-------6-----------4--|----4-------2---2--------------|
D|0-------0-------0-----------0--|----0-------0---0--------------|
A|-------------------------------|-------------------------------|
E|-------------------------------|-------------------------------|


                  xx  x   X X X X x x X X x   X

e|------- ------- ------- -------|------- -------|
B|-------------------------------|---------------|
G|-------------------------------|---------------|
D|-------------------------------|---------------|
A|-------------------------------|---------------|
E|-------------------------------|---------------|        



  D                               G
e|2------ 2------ 2------ 2------|3------ 3------ 3------ 3---3--|      
B|3-------3-------3-------3------|3-------3-------3-------3---3--|
G|2-------2-------2-------2------|0-------0-------0-------0---0--|
D|0-------0-------0-------0------|0-------0-------0-------0---0--|
A|-------------------------------|2-------2-------2-------2---2--|
E|-------------------------------|3-------3-------3-------3---3--|
          I   was born    with a  plastic         spoon   in    


  D
e|2------ 2------ 2------ 2------|2------ 2---2-- 2------ 2------|
B|3-------3-------3-------3------|3-------3---3---3-------3------|
G|2-------2-------2-------2------|2-------2---2---2-------2------|
D|0-------0-------0-------0------|0-------0---0---0-------0------|
A|-------------------------------|-------------------------------|
E|-------------------------------|-------------------------------|
  my          mouth                                            The 


                                          G
e|2------ 2------ 2---2-- 2------|------- 3------ 3------ 3------|
B|3-------3-------3---3---3------|--------3-------3-------3------|
G|2-------2-------2---2---2------|--------0-------0-------0------|
D|0-------0-------0---0---0------|--------0-------0-------0------|
A|-------------------------------|--------2-------2-------2------|
E|-------------------------------|--------3-------3-------3------|
  north   side of my  town   faced  east, and the east    was facing      


  D
e|2------ 2------ ------- 2------|2------ 2---2-- ------- 2------|
B|3-------3---------------3------|3-------3---3-----------3------|
G|2-------2---------------2------|2-------2---2-----------2------|
D|0-------0---------------0------|0-------0---0-----------0------|
A|-------------------------------|-------------------------------|
E|-------------------------------|-------------------------------|
              south                                   And now you 


          Em
e|------- 0------ ------- -------|------- 0------ ------- -------|
B|--------0----------------------|--------0----------------------|
G|--------0----------------------|--------0----------------------|
D|2-------2-------------------0--|2-------2-------------------0--|
A|2-------2---------------0H2----|2-------2---------------0H2----|
E|0-------0-------3--------------|0-------0-------3-------3------|

e|0------ 0------ 0---0-- 0------|0---0-- 0------ 0---0-- 0---2--|
B|0-------0-------0---0---0------|0---0---0-------0---0---0---3--|
G|0-------0-------0---0---0------|0---0---0-------0---0---0---2--|
D|2-------2-------2---2---2------|2---2---2-------2---2---2---0--|
A|2-------2-------2---2---2------|2---2---2-------2---2---2------|
E|0-------0-------0---0---0------|0---0---0-------0---0---0------|
  dare    to look     me      in      the     eye             Those       
 


e|------- 0------ ------- -------|------- 0------ ------- -------|
B|--------0----------------------|--------0----------------------|
G|--------0----------------------|--------0----------------------|
D|2-------2-------------------0--|2-------2-------------------0--|
A|2-------2---------------0H2----|2-------2---------------0H2----|
E|0-------0-------3--------------|0-------0-------3-------3------|

e|0---0-- 0------ 0---0-- 0------|0------ 0------ 0---0-- 2------|
B|0---0---0-------0---0---0------|0-------0-------0---0---3------|
G|0---0---0-------0---0---0------|0-------0-------0---0---2------|
D|2---2---2-------2---2---2------|2-------2-------2---2---0------|
A|2---2---2-------2---2---2------|2-------2-------2---2----------|
E|0---0---0-------0---0---0------|0-------0-------0---0----------|
  crocodile       tears   are     what you    cry         It's a 



e|------- 0------ ------- -------|------- 0------ ------- -------|
B|--------0----------------------|--------0----------------------|
G|--------0----------------------|--------0----------------------|
D|2-------2-------------------0--|2-------2-------------------0--|
A|2-------2---------------0H2----|2-------2---------------0H2----|
E|0-------0-------3--------------|0-------0-------3-------3------|

e|0------ 0------ 0---0-- 0------|0------ 0------ 0---0-- 2------|
B|0-------0-------0---0---0------|0-------0-------0---0---3------|
G|0-------0-------0---0---0------|0-------0-------0---0---2------|
D|2-------2-------2---2---2------|2-------2-------2---2---0------|
A|2-------2-------2---2---2------|2-------2-------2---2----------|
E|0-------0-------0---0---0------|0-------0-------0---0----------|
  genuine         problem,    you     won't   try              to
             


e|------- 0------ ------- -------|------- 0------ ------- -------|
B|--------0----------------------|--------0----------------------|
G|--------0----------------------|--------0----------------------|
D|2-------2-------------------0--|2-------2-------------------0--|
A|2-------2---------------0H2----|2-------2---------------0H2----|
E|0-------0-------3--------------|0-------0-------3-------3------|

e|0---0-- 0---0-- 0---0-- 2------|0------ 0---0-- 0---0-- 0------|
B|0---0---0---0---0---0---3------|0-------0---0---0---0---0------|
G|0---0---0---0---0---0---2------|0-------0---0---0---0---0------|
D|2---2---2---2---2---2---0------|2-------2---2---2---2---2------|
A|2---2---2---2---2---2----------|2-------2---2---2---2---2------|
E|0---0---0---0---3---0----------|0-------0---0---0---0---0------|
  work it out at  all you just    pass it     by,     pass    it 

                                      x   x   X X x   X   X   
  A
e|0---0-- 0------ 0---0-- 0---0--|0------ 0------ ------- -------|
B|2---2---2-------2---2---2---2--|2-------2----------------------|
G|2---2---2-------2---2---2---2--|2-------2----------------------|
D|2---2---2-------2---2---2---2--|2-------2----------------------|
A|0---0---0-------0---0---0---0--|0-------0----------------------|
E|-------------------------------|-------------------------------|
  by
e|------- ------- ------- -------|------- ------- ------- -------|
B|-------------------------------|-------------------------------|
G|----------------2---2---2---2--|2------------------------------|
D|----------------4---4---4---4--|2------------------------------|
A|----------------0---0---0---0--|0------------------------------|
E|-------------------------------|-------------------------------|



  D               Dmaj9       G               D           Em7
e|2------ ------- 0------ ----3--|----3-- ----2-- 2---2-- 0------|
B|3-------3-------2-----------3--|----3-------3---3---3---3------|  
G|2-------2-------2-----------4--|----4-------2---2---2---0------|
D|0-------0-------0-----------0--|----0-------0---0---0---0------|
A|-------------------------------|-------------------------------|
E|-------------------------------|-------------------------------|
                                  Me          for him
 (Substitute)

  D               Dmaj9       G               D           Em7
e|2------ ------- 0------ ----3--|----3-- 3---2-- ----2-- 0------|
B|3-------3-------2-----------3--|----3-- 3---3-------3---3------|
G|2-------2-------2-----------4--|----4---4---2-------2---0------|
D|0-------0-------0-----------0--|----0---0---0-------0---0------|
A|-------------------------------|-------------------------------|
E|-------------------------------|-------------------------------|
                              my  coke        for gin
 (Substitute)

  D               Dmaj9       G               D           Em7
e|2------ ------- 0------ ----3--|----3-- ----2-- 2------ 0------|
B|3-------3-------2-----------3--|----3-------3---3-------3------|
G|2-------2-------2-----------4--|----4-------2---2-------0------|
D|0-------0-------0-----------0--|----0-------0---0-------0------|
A|-------------------------------|-------------------------------|
E|-------------------------------|-------------------------------|
                          you     for     my      mum         At 
 (Substitute)
                                               
  D               Dmaj9       G               D           Em7
e|2------ ------- 0------ ----3--|----3-- ----2-- 2---2-- 0------|
B|3-------3-------2-----------3--|----3-------3---3---3---3------|
G|2-------2-------2-----------4--|----4-------2---2---2---0------|
D|0-------0-------0-----------0--|----0-------0---0---0---0------|
A|-------------------------------|-------------------------------|
E|-------------------------------|-------------------------------|
  least   I'll    get     my      washing     done 
 (Substitute)

  D               Dmaj9       G               D           Em7
e|2------ ------- 0------ ----3--|----3-- ----2-- 2---2-- 0------|
B|3-------3-------2-----------3--|----3-------3---3---3---3------|
G|2-------2-------2-----------4--|----4-------2---2---2---0------|
D|0-------0-------0-----------0--|----0-------0---0---0---0------|
A|-------------------------------|-------------------------------|
E|-------------------------------|-------------------------------|
                            your    lies        for fact        I
 (Substitute)
e|2------ 2------ 0------ 0---3--|----3-- 3---0-- 0---2-- 2---0--|
B|3-------3-------2-------2---3--|----3---3---3---3---3---3---3--|
G|2-------2-------2-------2---4--|----4---4---0---0---2---2---0--|
D|0-------0-------0-------0---0--|----0---0---0---0---0---0---0--|
A|-------------------------------|-------------------------------|
E|-------------------------------|-------------------------------|  
 


  D               Dmaj9       G               D
e|2------ ------- 0------ ----3--|----3-- ----2-- 2------ -------|
B|3-------3-------2-----------3--|----3-------3---3--------------|
G|2-------2-------2-----------4--|----4-------2---2--------------|
D|0-------0-------0-----------0--|----0-------0---0--------------|
A|-------------------------------|-------------------------------|
E|-------------------------------|-------------------------------|
  see     right   through your    plastic     mac             I
 (Substitute)
e|2------ 2------ 0------ 0---2--|2---0-- 0---2-- 2---0-- 0---2--|
B|3-------3-------2-------3---3--|3---3---3---3---3---3---3---3--|
G|2-------2-------2-------0---2--|2---0---0---2---2---0---0---2--|
D|0-------0-------0-------0---0--|0---0---0---0---0---0---0---0--|
A|-------------------------------|-------------------------------|
E|-------------------------------|-------------------------------|



  D               Dmaj9       G               D
e|2------ ------- 0------ ----3--|----3-- ----2-- 2------ -------|
B|3-------3-------2-----------3--|----3-------3---3--------------|
G|2-------2-------2-----------4--|----4-------2---2--------------|
D|0-------0-------0-----------0--|----0-------0---0--------------|
A|-------------------------------|-------------------------------|
E|-------------------------------|-------------------------------|
   look all  white         but my  dad was     black           My
 (Substitute)
e|2------ 2------ 0------ 2---0--|2---0-- 0---2-- 2---0-- 0---2--|
B|3-------3-------2-------3---3--|3---3---3---3---3---3---3---3--|
G|2-------2-------2-------2---0--|2---0---0---2---2---0---0---2--|
D|0-------0-------0-------0---0--|0---0---0---0---0---0---0---0--|
A|-------------------------------|-------------------------------|
E|-------------------------------|-------------------------------|


                                                  (.
  D               Dmaj9       G               D
e|2------ ------- 0------ ----3--|----3-- ----2-- 2------ -------|
B|3-------3-------2-----------3--|----3-------3---3--------------|
G|2-------2-------2-----------4--|----4-------2---2--------------|
D|0-------0-------0-----------0--|----0-------0---0--------------|
A|-------------------------------|-------------------------------|
E|-------------------------------|-------------------------------|
   fine   looking suit's  really  made out of sack  
 (Substitute)
e|2------ ------- 0------ 0---2--|2---0-- 0---2-- 2------ -------|
B|3-------3-------2-------3---3--|3---3---3---3---3--------------|
G|2-------2-------2-------0---2--|2---0---0---2---2--------------|
D|0-------0-------0-------0---0--|0---0---0---0---0--------------|
A|-------------------------------|-------------------------------|
E|-------------------------------|-------------------------------|
 











e|------- ------- ------- -------|------- ------- ------- -------|
B|-------------------------------|-------------------------------|
G|-------------------------------|-------------------------------|
D|-------------------------------|-------------------------------|
A|-------------------------------|-------------------------------|
E|-------------------------------|-------------------------------|









        B  Bend
        R  Release
        /  Slide up
        \  Slide down
        H  Hammer-on
        P  Pull-off
        ~  Vibrato
        +  Harmonic
        x  Mute note
        .  Play note like a dot in standard notation
        ^  Ties two notes together
        (. Pause
Comments