Who - Squeeze Box Chords & Tabs

 

Squeeze Box Chords & Tabs

Who Chords & Tabs

Version: 1 Type: Bass Tab

Squeeze Box Bass Tab

Intro: (bass comes in at 0:08)
G---------------------------------|
D-----5--------------------3-5----|
A---------------------3-5---------|
E-3-------3------3----------------|

Verse
G----------------------------|
D----------------------3-5---|
A----------------3-5---------|
E-3----3----3----------------|
3x, then

1st Chorus
G-----------------------------------|
D-----------------------------------|
A-5-5-55-5----3-3-33-3--5-5----3-33-|
E----------5-----------------5------|

Play verse 4x, then

2nd Chorus
G---------------------5-----------------------|
D---------------------------------------------|
A-5-5-55-5----3-3--------5-3-----5-5-----3-33-|
E----------5-------3---------5-3------5-------|

Play verse 4x, then

3rd Chorus
G---------------------7-5-----------------|
D-------------------------7-5-------------|
A-5-5-55-5---3-3----3----------5-5---3-33-|
E----------5-----3-----------------5------|

Play verse 2x, then

“Squeeze me”
G----------------------------------------------|
D----------------------------------------------|
A-----------2-3-5-555-55-555-5-3-333-33-333-3--|
E-3~--3~--4------------------------------------|
[ Tab from: http://www.guitartabs.cc/tabs/w/who/squeeze_box_btab.html ]
“Mama’s got a squeeze box daddy never sleeps at night”
G----------------------------------|
D----------------------------------|
A-5-555-5-3-333-3-------------3-5--|
E-----------------3-333-3-335------|

Banjo solo, bass play’s
G--------------------|
D-----55----3--------|
A---------5----5-----|
E-3---------------5--|
4x, then

G-----77---5-------|
D--------7----7----|
A-5-------------7--|
E------------------|
2x, then

G-----55---3-----|
D--------5---5---|
A-3------------5-|
E----------------|
2x, then

G-----77---5--------55----3-------------------------|
D--------7---7---------5----5------------------3-5--|
A-5------------7--3-----------5------------3-5------|
E--------------------------------3-33-33-3----------|

“She goes in and out”
G-------------------------------------|
D-------------------------------------|
A----3----3---3----3----3----3----3---|
E-3----3----3---3----3-----3---3----3-|

“Cause she’s playin all night”
G-------------------------------------|
D-------------------------------------|
A-5-5-5-5-55-5-55-5-3-3-3-33-3-3------|
E--------------------------------5-3--|

“Mama’s got a squeeze box daddy never sleeps at night”
G----------------------------------------------|
D------------------9-7-------------------------|
A-5-555-5-3-333-3------9-7--7-5------2---------|
E-------------------------------7-5----5-4-3~--|