Who - Pinball Wizard Chords & Tabs

 

Pinball Wizard Chords & Tabs

Who Chords & Tabs

Version: 2 Type: Tab 0 ratings
1 star 2 stars 3 stars 4 stars 5 stars
comments

Pinball Wizard Tab

   
Pinball Wizard
Tommy
Tabbed by JJmig
Sfichtner@trevornet.org

D= Down
U= Up
X = Mute
H= Hammer

Intro

e|-2----------------0----------------0----------------0---------------|
B|-3----------------3----------------2----------------2---------------|
G|-4----------------4----------------4----------------3---------------|
D|-4-4-4-4-4-4-4-4--4-4-4-4-4-4-4-4--4-4-4-4-4-4-4-4--4-4-4-4-4-4-4-4-|
A|--------------------------------------------------------------------|
E|--------------------------------------------------------------------|

e|-0----------------0----------------0----------------------------------|
B|-2----------------0----------------0----------------------------------|
G|-x----------------0----------------4----------------------------------|
D|-4-4-4-4-4-4-4-4--4-4-4-4-4-4-4-4--5-5-5-5-5-5-5-5--------------------|
A|----------------------------------------------------------------------|
E|----------------------------------------------------------------------|


e|---------------------------------------------------------------------|
B|-2-2-2-2-2-2-2-2-2-2-2-2-2-2-2-2-2-----------------------------------|
G|-3-3-3-3-3-3-3-3-3-3-3-3-3-3-3-3-3-----------------------------------|
D|-4-4-4-4-4-4-4-4-4-4-4-4-4-4-4-4-4-----------------------------------|
A|---------------------------------------------------------------------|
E|---------------------------------------------------------------------|

Repeat this 4 times
e|--2-2-2-2-2-2-2-2--2-2-2-2-2-2-2-2-----------------------------------|
B|--5-5-5-5-5-5-5-5--4-4-4-4-4-4-4-4-----------------------------------|
G|--4-4-4-4-4-4-4-4--4-4-4-4-4-4-4-4-----------------------------------|
D|--4-4-4-4-4-4-4-4--4-4-4-4-4-4-4-4-----------------------------------|
A|--2-2-2-2-2-2-2-2--2-2-2-2-2-2-2-2-----------------------------------|
E|--2-2-2-2-2-2-2-2--2-2-2-2-2-2-2-2-----------------------------------|

Ever since I was a young boy....
e|--2-2-2-2-2-2-2-2--2-2-2-2-2-2-2-2-----------------------------------|
B|--5-5-5-5-5-5-5-5--4-4-4-4-4-4-4-4-----------------------------------|
G|--4-4-4-4-4-4-4-4--4-4-4-4-4-4-4-4-----------------------------------|
D|--4-4-4-4-4-4-4-4--4-4-4-4-4-4-4-4-----------------------------------|
A|--2-2-2-2-2-2-2-2--2-2-2-2-2-2-2-2-----------------------------------|
E|--2-2-2-2-2-2-2-2--2-2-2-2-2-2-2-2-----------------------------------|

From Soho Down to Brighton....
E|---------------------------------------------------------------------|
B|--3-3-3-3-3-3-3-3--2-2-2-2-2-2-2-2-----------------------------------|
G|--2-2-2-2-2-2-2-2--2-2-2-2-2-2-2-2-----------------------------------|
D|--2-2-2-2-2-2-2-2--2-2-2-2-2-2-2-2-----------------------------------|
A|---------------------------------------------------------------------|
E|---------------------------------------------------------------------|

Well I ain't seen nothing like him.....
E|--3-3-3-3-3-3-3-3--3-3-3-3-3-3-3-3-----------------------------------|
B|--1-1-1-1-1-1-1-1--0-0-0-0-0-0-0-0-----------------------------------|
G|--0-0-0-0-0-0-0-0--0-0-0-0-0-0-0-0-----------------------------------|
D|--0-0-0-0-0-0-0-0--0-0-0-0-0-0-0-0-----------------------------------|
A|--0-0-0-0-0-0-0-0--0-0-0-0-0-0-0-0-----------------------------------|
E|--3-3-3-3-3-3-3-3--3-3-3-3-3-3-3-3-----------------------------------|

That deaf dumb and blind kid...     Sure plays a mean pinball
E|--2-2-2-2-2-2-2-2-------2---------------------------------------------|
B|--2-2-2-2-2-2-2-2-------2---------------------------------------------|
G|--4-4-4-4-4-4-4-4-------3---------------------------------------------|
D|--4-4-4-4-4-4-4-4-------4---------------------------------------------|
A|--4-4-4-4-4-4-4-4-------4---------------------------------------------|
E|--2-2-2-2-2-2-2-2-------2---------------------------------------------|

D=Down  U=Up
    d     u  u  u  d  u  d  u  d  u  d u
E|--2-2------2---------------------------------------------------------|
B|--4-4----2-3---------------------------------------------------------|
G|--4-4----2-2--1--1-1-1-1-1-1-1-1-------------------------------------|
D|--4-4----2----2--2-2-2-2-2-2-2-2-------------------------------------|
A|--2-2---------2--2-2-2-2-2-2-2-2-------------------------------------|
E|--2-2----------------------------------------------------------------|
^^ Repeat Then back to verse

He stands like a statue
e|--2-2-2-2-2-2-2-2--2-2-2-2-2-2-2-2-----------------------------------|
B|--5-5-5-5-5-5-5-5--4-4-4-4-4-4-4-4-----------------------------------|
G|--4-4-4-4-4-4-4-4--4-4-4-4-4-4-4-4-----------------------------------|
D|--4-4-4-4-4-4-4-4--4-4-4-4-4-4-4-4-----------------------------------|
A|--2-2-2-2-2-2-2-2--2-2-2-2-2-2-2-2-----------------------------------|
E|--2-2-2-2-2-2-2-2--2-2-2-2-2-2-2-2-----------------------------------|
[ Tab from: http://www.guitartabs.cc/tabs/w/who/pinball_wizard_tab_ver_2.html ]
Feelings all the Bumpers...
E|---------------------------------------------------------------------|
B|--3-3-3-3-3-3-3-3--2-2-2-2-2-2-2-2-----------------------------------|
G|--2-2-2-2-2-2-2-2--2-2-2-2-2-2-2-2-----------------------------------|
D|--2-2-2-2-2-2-2-2--2-2-2-2-2-2-2-2-----------------------------------|
A|---------------------------------------------------------------------|
E|---------------------------------------------------------------------|

Plays by Intuition....
E|--3-3-3-3-3-3-3-3--3-3-3-3-3-3-3-3-----------------------------------|
B|--1-1-1-1-1-1-1-1--0-0-0-0-0-0-0-0-----------------------------------|
G|--0-0-0-0-0-0-0-0--0-0-0-0-0-0-0-0-----------------------------------|
D|--0-0-0-0-0-0-0-0--0-0-0-0-0-0-0-0-----------------------------------|
A|--0-0-0-0-0-0-0-0--0-0-0-0-0-0-0-0-----------------------------------|
E|--3-3-3-3-3-3-3-3--3-3-3-3-3-3-3-3-----------------------------------|

That deaf dumb and blind kid...     Sure plays a mean pinball
E|--2-2-2-2-2-2-2-2-------2---------------------------------------------|
B|--2-2-2-2-2-2-2-2-------2---------------------------------------------|
G|--4-4-4-4-4-4-4-4-------3---------------------------------------------|
D|--4-4-4-4-4-4-4-4-------4---------------------------------------------|
A|--4-4-4-4-4-4-4-4-------4---------------------------------------------|
E|--2-2-2-2-2-2-2-2-------2---------------------------------------------|

E|--2-2------2---------------------------------------------------------|
B|--4-4----2-3---------------------------------------------------------|
G|--4-4----2-2--1--1-1-1-1-1-1-1-1-------------------------------------|
D|--4-4----2----2--2-2-2-2-2-2-2-2-------------------------------------|
A|--2-2---------2--2-2-2-2-2-2-2-2-------------------------------------|
E|--2-2----------------------------------------------------------------|


Then To the Chorus

      He's A Pinball Wizard.         There has to be a Twist
e|---------2---2-2-2-2--------------------2---2-2-2-2------------------|
B|---------2---4-4-4-4--------------------2---4-4-4-4------------------|
G|------1--3---4-4-4-4-----------------1--3---4-4-4-4------------------|
D|------2--4---4-4-4-4-----------------2--4---4-4-4-4------------------|
A|------2--4---2-2-2-2-----------------2--4---2-2-2-2------------------|
E|---------2---2-2-2-2--------------------2---2-2-2-2------------------|

A Pinball Wizard         Got Such a Supple Wrist D U  U
e|---------2---2-2-2-2------1𥹑-1-----2-2-2-2--2-3-2h3--------------|
B|---------2---4-4-4-4------0-0-0-0-----3-3-3-3--3-3-3----------------|
G|------1--3---4-4-4-4------0-0-0-0-----2-2-2-2--2-2-2----------------|
D|------2--4---4-4-4-4------0-0-0-0-----------------------------------|
A|------2--4---2-2-2-2------2-2-2-2-----------------------------------|
E|---------2---2-2-2-2------3-3-3-3-----------------------------------|


Higher Part
e|---5-5-5-5-5-5-5-5--5-5-5-5-5-5-5-5----------------------------------|
B|---8-8-8-8-8-8-8-8--7-7-7-7-7-7-7-7----------------------------------|
G|---7-7-7-7-7-7-7-7--7-7-7-7-7-7-7-7----------------------------------|
D|---7-7-7-7-7-7-7-7--7-7-7-7-7-7-7-7----------------------------------|
A|---5-5-5-5-5-5-5-5--5-5-5-5-5-5-5-5----------------------------------|
E|---5-5-5-5-5-5-5-5--5-5-5-5-5-5-5-5----------------------------------|

Do that 4 times

Even on my Favorite Table  He can beat my best
e|---5-5-5-5-5-5-5-5--5-5-5-5-5-5-5-5----------------------------------|
B|---8-8-8-8-8-8-8-8--7-7-7-7-7-7-7-7----------------------------------|
G|---7-7-7-7-7-7-7-7--7-7-7-7-7-7-7-7----------------------------------|
D|---7-7-7-7-7-7-7-7--7-7-7-7-7-7-7-7----------------------------------|
A|---5-5-5-5-5-5-5-5--5-5-5-5-5-5-5-5----------------------------------|
E|---5-5-5-5-5-5-5-5--5-5-5-5-5-5-5-5----------------------------------|

   His Disciples lead him in  He Just does the rest
e|---3-3-3-3-3-3-3-3-----3-3-3-3-3-3-3-3-------------------------------|
B|---5-5-5-5-5-5-5-5-----4-4-4-4-4-4-4-4-------------------------------|
G|---4-4-4-4-4-4-4-4-----4-4-4-4-4-4-4-4-------------------------------|
D|---4-4-4-4-4-4-4-4-----4-4-4-4-4-4-4-4-------------------------------|
A|---3-3-3-3-3-3-3-3-----3-3-3-3-3-3-3-3-------------------------------|
E|---3-3-3-3-3-3-3-3-----3-3-3-3-3-3-3-3-------------------------------|

  He's got crazy flipper fingers   Never seen him fall
e|---1-1-1-1-1-1-1-1-----1-1-1-1-1-1-1-1------------------------------|
B|---4-4-4-4-4-4-4-4-----3-3-3-3-3-3-3-3------------------------------|
G|---3-3-3-3-3-3-3-3-----3-3-3-3-3-3-3-3------------------------------|
D|---3-3-3-3-3-3-3-3-----3-3-3-3-3-3-3-3------------------------------|
A|---1-1-1-1-1-1-1-1------1-1-1-1-1-1-1-1------------------------------|
E|---1-1-1-1-1-1-1-1------1-1-1-1-1-1-1-1------------------------------|

That deaf dumb and blind kid      Sure play a mean Pinball
E|---------------------------------------------------------------------|
B|--3-3-3-3-3-3-3-3----2-----------------------------------------------|
G|--2-2-2-2-2-2-2-2----2-----------------------------------------------|
D|--2-2-2-2-2-2-2-2----2-----------------------------------------------|
A|---------------------------------------------------------------------|
E|---------------------------------------------------------------------|

That's about it, I don't know the end part but's like some E or something
Bo ya
Comments