Who - Pinball Wizard Chords & Tabs

 

Pinball Wizard Chords & Tabs

Who Chords & Tabs

Version: 3 Type: Bass Tab 0 ratings
1 star 2 stars 3 stars 4 stars 5 stars
comments

Pinball Wizard Bass Tab

I tabbed this out because there are no correct tabs on the net.


Intro (not exact number)
G---------------------------------------------------------------
D-4-444444444444444444444444444444444---------------------------
A------------------------------------0--------------------------
E---------------------------------------------------------------

Verse
G---------------------------------------------------------------
D----9---99---9---99---7---77---7---77---5---55---4---4---------
A-----7h9------7h9------5h7------5h7------3h5------2h4-4--------
E--77-------77-------55-------55-------33-------22--------------
[ Tab from: http://www.guitartabs.cc/tabs/w/who/pinball_wizard_btab_ver_3.html ]
Riff#1                                 Riff#2
"Sure plays a mean pinball"            "He's a Pinball wizard"
G----------------------------          G-----------------------------------
D----------------------------          D-----------------------------------
A-22-0-5----22-0-5-----------          A---22---22---22------5----5--------
E-------00--------00---------          E-02---02---02---3------3-----------

Riff#3
"How do you think he does it?"
G-222-----222-------
D-------------------
A----32------32-----
E------33------33---


Here is the order, (the bass comes in late on the first and fourth verse)

Intro
Verse
Riff#1
Verse
Riff#1
Riff#2
Riff#3
Verse
Riff#1
Riff#2
Verse
Riff#1
Comments