Who - Overture Chords & Tabs

 

Overture Chords & Tabs

Who Chords & Tabs

Version: 1 Type: Tab 0 ratings
1 star 2 stars 3 stars 4 stars 5 stars
comments

Overture Tab

   
this is a great song but has a hard rythem listen to the cd to figure it out.
use killed strings between ever chord change
[ Tab from: http://www.guitartabs.cc/tabs/w/who/overture_tab.html ]
part a 
e-5---5---5---5---5---5---7---5
b-5---5---7---7---5---5---9---7
g-6---6---7---7---6---6---9---7    repeat
d-7---7---7---7---7---7---9---7
a-7---7---5---5---7---7---7---5
e-5---5---5---5---5---5---7---5

part b is played slowly

e---2---3---0
b---3---3---3
g---2---2---2
d---0---0---0   repeat 
a------------
e------------
Comments