Who - My Generation Live Chords & Tabs

 

My Generation Live Chords & Tabs

Who Chords & Tabs

Version: 1 Type: Bass Tab 0 ratings
1 star 2 stars 3 stars 4 stars 5 stars
comments

My Generation Live Bass Tab

   
-----------------------------------------------------------------------------
      The Who-"My Generation" live at the Isle of Wight Festival 1970
-----------------------------------------------------------------------------

tabbed by: Cody Wilson
tuning: standard
tone: bassey                         
bass player: John Entwistle
[ Tab from: http://www.guitartabs.cc/tabs/w/who/my_generation_live_btab.html ]
 Intro:                              1st verse:                             
 (w/pick)  
 bass figure 1---|                   w/bass figure 1---| louder!
|-----------------|------------------|------------------|-------------------|
|-7-7-7-7-5-5-5-5-|-7-7-7-7-5/12/22\-|*play-------------|-7-7-7-7-5-5-5-5-7\|
|-----------------|------------------|-quietly----------|-------------------|
|-----------------|------------------|------------------|-------------------|
 *as before------|                    *as before-------|     
|-----------------|------------------|------------------|-------------------|
|---------7-7-7-7-|-7-7-7-7-55555555\|----------7-7-7-7-|-7-7-7-7-5-5555555-|
|-----------------|------------------|------------------|-------------------|
|-----------------|------------------|------------------|-------------------|
 rest------------|                    Interlude: 
                        end 1st verse.bass fig.2         end       2nd verse
|-----------------|------------------|---5-----------5------|-----|play first
|-----------------|--7-7-7-7-55555555|-7---7-5---5-7---7-5--|-----|verse-----
|-----------------|------------------|---------7-----------7|-----|w/slight--
|-----------------|------------------|----------------------|-8-5-|variations
 Interlude(w/bass fig. 2  Bass Solo Breaks:(w/fingers)     (guitar fill)
|------------------------|-/7-10-7-5--5-------------|-----------------------|
|------------------------|-----------7--7-5-0-2-----|---------5-7-555557----|
|------------------------|----------------------0-3-|-0-0-0-5-----------030-|
|------------------------|--------------------------|-----------------------|

|---------7-7-7-10\-|-----------------|-/7-10-7-5---5-----------------|----|
|-------------------|---------5-5-5-5-|-----------7---7-5---5---------|----|
|-0-0-0-3-----------|-----------------|-------------------7---5-3---3-|----|
|-------------------|-5-5-5-5---------|---------------------------5---|-5--|
                                     interlude(bass fig.1)w/slight variations
|-------------|--------------5-------|-play 3 times,then play this note once-
|-55h7-555557-|-7-5---5--------7-5-7-|-------------------------------------9-
|-------------|-----7---7775---------|---------------------------------------
|-------------|----------------------|---------------------------------------

3rd verse:
bass fig.3(w/slight variations)                   
                                   x4 Outro:       x2 just improvise off this
|-----------------------------------|-----------------|-----------------|for
|-9-9-9-9-7-7-7-7-9---rest----------|-9-9-9-9-7-7-7-7-|-----------------|a
|-----------------------------------|-----------------|-5--5-5--3--3-3--while
|-----------------------------------|-----------------|-----------------|

/=slide down
\=slide up
h=hammer-on
Comments