Who - My Generation Chords & Tabs

 

My Generation Chords & Tabs

Who Chords & Tabs

Version: 2 Type: Chords 0 ratings
1 star 2 stars 3 stars 4 stars 5 stars
comments

My Generation Chords

   
----------------------------------------------------------------------------
			     My Generation - The Who
----------------------------------------------------------------------------
Tabbed by: bocephx
Email: bocephx@yahoo.com

Tuning: EADGBe

Verse One
G					      F
People try to put us d-down (talkin' 'bout my generation)
G					     F
Just because we get around (talkin' 'bout my generation)
G					 	     F
Things they do look awful c-c-cold (talkin' 'bout my generation)
G					      F
Hope I die before I get old (talkin' 'bout my generation)

Chorus
F                  G7    C
   This is my generation
G7         C       G      C
   This is my generation, baby
G7   C     G       G
[ Tab from: http://www.guitartabs.cc/tabs/w/who/my_generation_crd_ver_2.html ]
Verse Two
G					        F 
Why don't you all f-fade away (talkin' 'bout my generation)
G					                   F 
And don't try to dig what we all s-s-say (talkin' 'bout my generation)
G					 	              F
I'm not trying to cause a big s-s-sensation (talkin' 'bout my generation)
G					                     F
I'm just talkin' 'bout my g-g-g-generation (talkin' 'bout my generation)

----------------------------------------------------------------------------
		               STRUM PATTERN
----------------------------------------------------------------------------

| V   V ^ V   V   |
  D   D U D   D

All eighth notes in same succession throughout song.

----------------------------------------------------------------------------
			     CHORD FINGERINGS
----------------------------------------------------------------------------

    G     F     G7    C
|---3-----1-----1-----0---|
|---0-----1-----0-----1---|
|---0-----2-----0-----0---|
|---0-----3-----0-----2---|
|---2-----------2-----3---|
|---3-----------3---------|
Comments