Who - My Generation Chords & Tabs

 

My Generation Chords & Tabs

Who Chords & Tabs

Version: 2 Type: Bass Tab 0 ratings
1 star 2 stars 3 stars 4 stars 5 stars
comments

My Generation Bass Tab

   
The Who - My Generation

Intro
G------------------------------------------------
D------------------------------------------------
A------------------------------------------------
E-3--3--3--3--1--1--1--1--3--3--3--3--1--1--1--1-

Verse 1
G-----------------------------
D-3-5-5-5---5-5-5-3-3-3-3-3-5-
A---------5-------------------
E-----------------------------

Interlude
G------------------------
D------------------------
A------------------------
E-3--3--3--3--5--5--5--5-

Verse 2
G-----------------------------
D-3-5-3-5-3-5-5-5-3-3-3-3-3-5-
A-----------------------------
E-----------------------------

Interlude
G------------------------
D------------------------
A------------------------
E-3--3--3--3--5--5--5--5-

Verse 3
G-----------------------------
D-3-5-5-5---5-5-5-3-3-3-3-3-5-
A---------5-------------------
E-----------------------------
[ Tab from: http://www.guitartabs.cc/tabs/w/who/my_generation_btab_ver_2.html ]
Verse 4
G-----------------------------
D-3-5-5-5---5-5-5-3-3-3-3-3-5-
A---------5-------------------
E-----------------------------

Chorus
G------------------------
D------------------------ (3x)
A------------------------
E-3--3--3--3--5--5--5--5-

(No bass in verses 5, 6, 7 and 8)

Chorus
G------------------------
D------------------------ (3x)
A------------------------
E-3--3--3--3--5--5--5--5-

Bass solo part 1
G-----3-5-3---------------
D---5-------5-3-----------
A---------------3-3-1-1---
E-3---------------------3-

(Interlude)

Bass solo part 2
G-----------------------
D-5-5-3---------------3-
A-------5-3-1---1-5-5---
E-------------3---------

(Interlude)

Bass solo part 3
G-----3-3---------------
D-5-5-----3-3---------5-
A-------------3-1---1---
E-----------------3-----

(Interlude)

Bass solo part 4 (fast!)
G---------------------
D-5-555-3-333---------
A-------------3-3-3-1-
E---------------------

(Chorus riff, then play like you did from
verse 5 - chorus 2, only a step higher)
After next chorus climb another half a step up.

End the song with a jam.

Tabbed by Robin Espersen jammindevil@hotmail.com
Comments