Who - I Dont Mind Chords & Tabs

 

I Dont Mind Chords & Tabs

Who Chords & Tabs

Version: 1 Type: Tab 0 ratings
1 star 2 stars 3 stars 4 stars 5 stars
comments

I Dont Mind Tab

   
Note: all leads and chords are approximate -- use at your own risk.

[intro]
                              Ooh...                              2
| C7 C7 C7 C7 C7 C7 (C E G)||:Am         G | C7          (C E G):||
|-8--8--8--8--8--8---------||-------8------|---------------------||
|-8--8--8--8--8--8---------||-5-/10---10-8-|-8---8/10-8----------||
|-9--9--9--9--9--9---------||-5----------9-|-9----------9--------||
|-8--8--8--8--8--8-------5-||-7------------|-10---------------5--||
|-10-10-10-10-10-10--3-7---||-7------------|----------------7----||
|-8--8--8--8--8--8---------||--------------|--------------8------||

Am          G|C         |Am           G|C                        C7 
I don't mind   your love, I don't mind   the one you're thinkin' of
 |F      |D7    |G7 G7 G7 G7 G7 G7 | G7                  |
I know, I know                          You gonna miss me

|C7 C7 C7 C7 C7 C7 (C E G)|

I don't mind your love so sound
I don't mind, it can't go cold
I know, I know
You gonna miss me

 Am          G   C7         (C E G)    Am          G
|---------------|----------8---6--5---|------------------|
|---------------|---------------------|------------------|
|---5-7-7^---7^\|-5-5---/9--/7--/5-3~-|----5-7^----3-3-3-|
|--7------------|---------------------|/7----------------|
|---------------|---------------------|------------------|
|---------------|---------------------|------------------|
[ Tab from: http://www.guitartabs.cc/tabs/w/who/i_dont_mind_tab.html ]
 C7   (C    E  G) Am                G    F
|------8---------|---------------------|--------------------------|
|--------10/11-8-|----8/10-8--------10^|-10----/13-15-13-----13---|
|-3------------9-|-9--8/10-8/9-8^---10^|-10--12/14----14----------|
|----------------|-10------------10----|-------------------13--13-|
|----------------|---------------------|--------------------------|
|----------------|---------------------|--------------------------|

 D7                   G7 G7 G7 G7 G7 G7   G7 
|-------------------|-------------------|----11/8---8------------|
|----------11-------|-8--8--8--8--8--8--|-8-------11-11^\--------|
|-----8/10----------|-10-10-10-10-10-10-|-10--------------8---8--|
|-12-10/12---12--0--|-9--9--9--9--9--9--|-9-----------------10---|
|-------------------|-10-10-10-10-10-10-|-10---------------------|
|-------------------|-------------------|------------------------|

                            
| C7 C7 C7 C7 C7 C7 (C E G)|
|-8--8--8--8--8--8---------|
|-8--8--8--8--8--8---------|
|-9--9--9--9--9--9---------|
|-8--8--8--8--8--8-------5-|
|-10-10-10-10-10-10--3-7---|
|-8--8--8--8--8--8---------|

I don't mind, it's the end of my song
I don't mind, goodbye, so long
I know, said, baby, I know you gonna miss me

[fade out]
 Am          G        C7             (C E G)    Am               G
|-------------------|-----------8-------------|-----------------------|
|-10----------------|-------8-10------------8-|-8-----------8---------|
|------5-7-7^~-5-5-5|-5--/9-------9/10--8-----|----9--7/7/7^--7^~-5---|
|----7--------------|--------------------10---|---------------------7-|
|-------------------|-------------------------|-----------------------|
|-------------------|-------------------------|-----------------------|

 C7
|------------------
|-8--5--1--5\3-----
|-9--5--0--5\3-----
|-10-5--2--5\3-----
|------------------
|------------------
Comments