Who - I Cant Explain Chords & Tabs

 

I Cant Explain Chords & Tabs

Who Chords & Tabs

Version: 1 Type: Bass Tab 0 ratings
1 star 2 stars 3 stars 4 stars 5 stars
comments

I Cant Explain Bass Tab

Great song!

G------------------------------------------------------------
D------------------------------------------------------------
A-----5----------------5-------------------------------------
E--3-----0h6----5-5-5----5-----------------------------------

G------------------------------------------------------------
D------------------------------------------------------------
A-----5----------------5-------------------------------------
E--3-----0h6----5-5-5----5-----------------------------------
[ Tab from: http://www.guitartabs.cc/tabs/w/who/i_cant_explain_btab.html ]
G------------------------------------------------------------
D------------------------------------------------------------
A-----5----------------5-------------------------------------
E--3-----0h6----5-5-5----5-----------------------------------

and that basically repeats or if you wanted you could make it simpler by playing open strings like this:

G------------------------------------------------------------
D-----0----------------0-------------------------------------
A---------------0-0-0----0-----------------------------------
E--3-----0h6-------------------------------------------------

but open strings ring out more than if you play on the fifth fret, but I guess its up to you. Enjoy!
Comments