Who - I Can See For Miles Chords & Tabs

 

I Can See For Miles Chords & Tabs

Who Chords & Tabs

Version: 1 Type: Bass Tab 0 ratings
1 star 2 stars 3 stars 4 stars 5 stars
comments

I Can See For Miles Bass Tab

   
Band: Who
Song: I Can See For Miles

Intro/Verse 1/Chorus/Verse 2 

G|-----------------|
D|-----------------| 
A|-7-7-7-7-7-7-7-7-| (x30)
E|-----------------|

Bridge 1

G|-------------------------------------------------------------|
D|-7--------9--------7--------9----9-9-9-9-9-9-9-9-9-9-9-9-9-9-|
A|-------------------------------------------------------------|
E|-------------------------------------------------------------|

Chorus 2

G|------6--9-------8--11----------7--6----------|
D|-7----------9-------------------------9--7--7-|
A|-------------------------7--------------------|
E|----------------------------------------------| 

G|------6--9-------8--11-------7--7--6----------|
D|-7----------9-------------------------9--7--6-|
A|------------------------7---------------------|
E|----------------------------------------------|

G|------------------|      G|-----------------| 
D|------------------|      D|-----------------|
A|-7--7-7-7-7-7-7-7-|(x4)  A|-7-7-7-7-7-7-7-7-|(x4)
E|------------------|      E|-----------------| 

Verse 3

G|----------------|
D|----------------|
A|7-7-7-7-7-7-7-7-| (x8)
E|----------------|

Bridge 2

G|------------------------------------------------------------|
D|-7--------9--------7--------9-9-9-9-9-9-9-9-9-9-9-9-9-9-9-7-|
A|------------------------------------------------------------|
E|------------------------------------------------------------|

Chorus 3

G|------6--9-------8--11-------9--7------6-------|
D|-7----------9-----------------------------7--7-|
A|------------------------7----------------------|
E|-----------------------------------------------|

G|------6--9-------8--11-------9--7--6----------|
D|-7----------9-------------------------9--7--7-|
A|------------------------7---------------------|
E|----------------------------------------------|

G|--------------------------------|
D|--------------------------------|
A|7---7-7-7-7-7-7-7-7-7-7-7-7-7-7-|
E|--------------------------------|

During Guitar Solo/Verse 4/Chorus 4

G|-----------------|
D|-----------------| 
A|-7-7-7-7-7-7-7-7-| (x26)
E|-----------------|

Verse 5
[ Tab from: http://www.guitartabs.cc/tabs/w/who/i_can_see_for_miles_btab.html ]
G|------------------------------------------------|
D|-7-7-7-7-7-7-7-7-7--7-7-7-7-7-7-7-7-7-7-7-7-7-7-|
A|------------------------------------------------|
E|------------------------------------------------|

Bridge 3

G|-7--------------7-------------------------------------------------------|
D|-------------------------------------------------------------------7--7-|
A|------------------------------------------------------------------------|
E|---------0---------------0--0--0--0--0--0--0--0--0--0--0--0--0--0-------|

Chorus 5

G|----------------------------6--9-------------|
D|------4--7-------6--9--7----------7--7--7--9-|
A|-5----------7--------------------------------|
E|---------------------------------------------|

G|----------------------------6--9-------------|
D|------4--7-------6--9--7----------7--6-----6-|
A|-5----------7---------------------------9----|
E|---------------------------------------------|

G|---------------------------------------------|
D|7--7--7----7--7--7--7--7----7----7--7--7--7--|
A|---------------------------------------------|
E|---------------------------------------------|

G|-----------------------------------------------------------------------|
D|--7----7--7--7--7--7--7--7--7--7----7--7--7--7--7--7--7--7--7--7--7--7-|
A|-----------------------------------------------------------------------|
E|-----------------------------------------------------------------------|

Outro

G|----------------------------6--9-----6--9--6-------------------------|
D|------4--7-------6--9--7----------7-------------7--------------------|
A|-5----------7--------------------------------------0----0--5--7------|
E|---------------------------------------------------------------------|

G|----6--9-----6--9--6--------------------------|
D|-7--------7-----------7-------4--7-------6--9-|
A|-------------------------5----------7---------|
E|----------------------------------------------|

G|----6--9-----6--9--6--------------------------------6--9-----6--9--6----|
D|-7--------7-----------7-----4--7--------6--9--9--7--------7-----------7-|
A|-------------------------5--------7--7----------------------------------|
E|------------------------------------------------------------------------|

There you go, I think its all correct.
Comments