Who - Happy Jack Chords & Tabs

 

Happy Jack Chords & Tabs

Who Chords & Tabs

Version: 2 Type: Bass Tab 0 ratings
1 star 2 stars 3 stars 4 stars 5 stars
comments

Happy Jack Bass Tab

                               Happy Jack by The Who
                               Played by John Entwhistle
                                 Tabbed by Peter Magestro
                   
G ------------0---4------0-------|------------------------------------|
D 0-----2-4----------2-----4-0---|0---------------0-------------------|
A -------------------------------|------------0-------------------0---|
E--------------------------------|------------------------------------|

G -------------------------------|------------------------------------|
D 0---------------0--------------|0---------------0--------------2----|
A ------------0--------------0---|------------0--------------0-------0|
E -------------------------------|------------------------------------|

G -------------------------------|-------------------------------|
D 0---------------0--------------|0---------------0--------------|
A ------------0--------------0---|------------0--------------0---|
E -------------------------------|-------------------------------|
[ Tab from: http://www.guitartabs.cc/tabs/w/who/happy_jack_btab_ver_2.html ]
G ---------------------------------------|
D 0---------------0--------------2-------|
A ------------0--------------0-------0---|
E ---------------------------------------|

G -------------------------------|------------0---4-------0------|
D 0---------------0--------------|0-----2-4----------2------4-0--|
A ------------0--------------0---|-------------------------------|
E -------------------------------|-------------------------------|

G -------------------------------|------------------------------------|
D 0---------------0--------------|0---------------0--------------2----|
A ------------0--------------0---|------------0--------------0-------0|
E -------------------------------|------------------------------------|

G -------------------------------|-------------------------------|
D 0---------------0--------------|0---------------0--------------|
A ------------0--------------0---|------------0--------------0---|
E -------------------------------|-------------------------------|

G ---------------------------------------|
D 0---------------0--------------2-------|
A ------------0--------------0-------0---|
E ---------------------------------------|

And there it is the intro is very fun to play and the whole song is played palm muted. Have Fun
Comments