Who - Boris The Spider Chords & Tabs

 

Boris The Spider Chords & Tabs

Who Chords & Tabs

Version: 1 Type: Bass Tab 1 rating
1 star 2 stars 3 stars 4 stars 5 stars
comments

Boris The Spider Bass Tab

   
Band: The Who
Song: Boris the Spider
Tabbed by: Lee Bradley (Lee.Bradley@btinternet.com)

I don't know the timing, and there's lots of sections to put

Here's the correct version of Boris the Spider, as far as I 
can make out, anyway...
The chorus bits by Fred (freddy@soonet.ca) were correct, but
the verse bits were slightly wrong.

Chorus

G-----------------------------
D-----------------------------
A-5-4-3-2-1-------------------
E-----------0-3-3-3-3-3-3-3-3-

Verse
[ Tab from: http://www.guitartabs.cc/tabs/w/who/boris_the_spider_btab.html ]
G--------------------------------5-5-0-0--------------------
D-0-0-8-8-3-3-5--------------------------8-8-3--5-5-5-5-5-5-
A----------------3-3-3-3-3-3-3-3----------------------------
E-----------------------------------------------------------

G-5-5-0-0------------------------5-5-0-0--------------------
D---------8-8-3--2-----------------------8-8-3--5-5-5-5-5-5-
A------------------3-3-3-3-3-3-3----------------------------
E-----------------------------------------------------------

Creepy Crawly bit

G------------------------
D------------------------
A------------------------
E-3-1-3-1-3-1-3-1-3-etc..

Please send any comments or suggestions 
to Lee.Bradley@btinternet.com

Comments