Who - Baba Oriley Chords & Tabs

 

Baba Oriley Chords & Tabs

Who Chords & Tabs

Version: 6 Type: Tab 0 ratings
1 star 2 stars 3 stars 4 stars 5 stars
comments

Baba Oriley Tab

   
Tabbed by: audioboxer
Email: movienut01@comcast.net


This is from the "Who's Next" album. This intro is played on piano, buy I transcribed it 
guitar...it's perfect, im almost positive!

Part A
     G
e|---3--------------------------------------------------------------------|
B|---0----3----1----------------------------------------------------------|
G|---0----0----0----------------------------------------------------------|
D|---0----0----0----------------------------------------------------------|
A|---2----2----2----------------------------------------------------------|
E|---3----3----3----------------------------------------------------------|

Just repeat this over and over until you get to 1:59. Then it's just a C chord 3 
those of you who dont know the C chord-

e|--0-----------------------------------------------------------------------|
B|--1-----------------------------------------------------------------------|
G|--0-----------------------------------------------------------------------|
D|--2-----------------------------------------------------------------------|
A|--3-----------------------------------------------------------------------|
E|--0-----------------------------------------------------------------------|
there it is.

Then continue with Part A until you reach 2:56
e|---14--14--9--9--11-11-11--14--16--14--18--14--14--11--9-11--9--11--9--|
B|-----------------------------------------------------------------------|
G|-----------------------------------------------------------------------|
D|-----------------------------------------------------------------------|
A|-----------------------------------------------------------------------|
E|-----------------------------------------------------------------------|
Townsends solo....
[ Tab from: http://www.guitartabs.cc/tabs/w/who/baba_oriley_tab_ver_6.html ]
"Teenage wasteland {x4}
THEY'RE ALL WASTED!"
      C    C      Bb   Bb
e|----0----0------1---1----------------------------------------------------|
B|----1----1------3---3----------------------------------------------------|
G|----0----0------3---3----------------------------------------------------|
D|----2----2------3---3----------------------------------------------------|
A|----3----3------0---0----------------------------------------------------|
E|----0----0------0---0----------------------------------------------------|


|-12-13-15--12-13-15--12-13-15--12-13-15--12-13-15--12-13-15---------|
|--------------------------------------------------------------------|
|--------------------------------------------------------------------|
|--------------------------------------------------------------------|
|--------------------------------------------------------------------|
|--------------------------------------------------------------------|


|-12-13-15--12-13-15--12-13-15--11-13-15--11-13-15--11-13-15-|
|------------------------------------------------------------|
|------------------------------------------------------------|
|------------------------------------------------------------|
|------------------------------------------------------------|
|------------------------------------------------------------|


|-12-13-12-13-12-13-12-13-12-13-12-13-12-13-12----|
|----------------------------------------------13-|
|-------------------------------------------------|
|-------------------------------------------------|
|-------------------------------------------------|
|-------------------------------------------------|


|-12-13-12-13-12-13-12-13-12-13-12-13-15-12-13-12-|
|-------------------------------------------------|
|-------------------------------------------------|
|-------------------------------------------------|
|-------------------------------------------------|
|-------------------------------------------------|


13-15-13-15-13-15-13-15-13-15-13-15-13-15-13-----|
-------------------------------------------------|
-------------------------------------------------|
-------------------------------------------------|
-------------------------------------------------|
-------------------------------------------------|

|-11-13-11-13-11-13-11-13-11-13-11-13-11-13-11-13-|
|-------------------------------------------------|
|-------------------------------------------------|
|-------------------------------------------------|
|-------------------------------------------------|
|-------------------------------------------------|


any questions...just email me...i cant believe no one else took the time to transcribe 
beginning out..one of the best riffs ever!
Comments