Who - Baba Oriley Chords & Tabs

 

Baba Oriley Chords & Tabs

Who Chords & Tabs

Version: 5 Type: Tab 0 ratings
1 star 2 stars 3 stars 4 stars 5 stars
comments

Baba Oriley Tab

into/verse

e-----------------------------------------------------|
B-----------------------------------------------------|
G---4-------------------------------------------------|  repeat untill end of
D---4-----4-----2-------------------------------------|  first verse
A---2-----4-----2-------------------------------------|
E---------2-----0-------------------------------------|

end of first verse and all of second verse

e------------------------------------------------------|
B------------------------------------------------------|
G-------5-----3----------------------------------------|
D-3-----5-----3----------------------------------------|
A-3-----3-----1----------------------------------------|
E-1----------------------------------------------------|

solo
[ Tab from: http://www.guitartabs.cc/tabs/w/who/baba_oriley_tab_ver_5.html ]
e---14-9-11-11-11-9h11-9-14-16-18-19-14h16-14h16-14-14-14-14^-----|
B-----------------------------------------------------------------|
G-----------------------------------------------------------------|
D-----------------------------------------------------------------|
A-----------------------------------------------------------------|
E-----------------------------------------------------------------|

chorus (teenage wasteland part) same as second verse

ending

e-11-12-14--11-12-14--11-12-14-------------------11-12-11-12-11-12-11-9-7-9-|
B---------------------------------------------------------------------------|
G---------------------------------------------------------------------------|
D---------------------------------------------------------------------------|
A---------------------------------------------------------------------------|
E---------------------------------------------------------------------------|
(repeat untill end)
Comments