Who - Baba Oriley Chords & Tabs

 

Baba Oriley Chords & Tabs

Who Chords & Tabs

Version: 1 Type: Tab 0 ratings
1 star 2 stars 3 stars 4 stars 5 stars
comments

Baba Oriley Tab

   
E-----------------
B-----------------
G-------5----3----
D--3----5----3----      Repeat this throughout the song
A--3----3----1----
E--1--------------

after the second verse before everything drops but the key board the guitar is

E-----------------
B-----------------
G--5----5----5----
D--5----5----5----
A--3----3----3----
E-----------------

The solo goes like this

E--14-9-10h11-11-11-14-16-14-18-14-14-11-9-11-9-11--9/9/9/9/9/9/9/9/9
B--------------------------------------------------------------------
G--------------------------------------------------------------------
D--------------------------------------------------------------------
A--------------------------------------------------------------------
E--------------------------------------------------------------------
[ Tab from: http://www.guitartabs.cc/tabs/w/who/baba_oriley_tab.html ]
after the solo come back with the beginning.....
not too long after it quites down, and before the violin u get

E--12-13-15--
B------------
G------------
D------------
A------------
-------------

do this and listen for the change to 

E-12h13p12h13p12h13
B------------------
G------------------
D------------------
A------------------
E------------------

repeat that till a couple seconds after the violin would come in if you are
playing with the real song otherwise i would recommend plaing and creating your
own ending to the song with out the violin

_______________________________________________________________________________
This was tabbed out by Scooter ps this sounds great by itself......the solo
sounds a little out of tune when u play with the cd but it sounds really good
if u play w/o it hope you enjoy the tab havent seen a better one yet
Scooter
Comments