Who - Baba O Riley Chords & Tabs

 

Baba O Riley Chords & Tabs

Who Chords & Tabs

Version: 2 Type: Tab 0 ratings
1 star 2 stars 3 stars 4 stars 5 stars
comments

Baba O Riley Tab

   
-----------------------------------------------------------------------------
			     The Who - Baba O'Riley
-----------------------------------------------------------------------------
Tabbed by:
Email: GEoMaN003@aol.com 

Tuning:eBGDAE

intro and main riff
   F5   C   Bb
e|--------------------|
B|------5---3---------|
G|------5---3---------|
D|-3----5---3---------|
A|-3----3---1---------|
E|-1------------------|

bridge

e|---------------|
B|-5----5----5---|
G|-5----5----5---|
D|-5----5----5---|
A|-3----3----3---|
E|---------------|

the weird keyboard thing is kind of played like this
e|-------------------------------|
B|-------------------------------|
G|------------10-10--------------|
D|-----10-10--------10-10--------|
A|-8-8--------------------8-8----|
E|-------------------------------|
[ Tab from: http://www.guitartabs.cc/tabs/w/who/baba_o_riley_tab_ver_2.html ]
solo
e|-13-13-13--13----------------13-15-13-15^-15-13--------------------------|
B|--------------13-13/15-15-15--------------------15-13-15p13h15-----------|
G|-------------------------------------------------------------------------|
D|-------------------------------------------------------------------------|
A|-------------------------------------------------------------------------|
E|-------------------------------------------------------------------------|

e|---------------------------|
B|-13^-13^-13^-13^-13^-13^---|
G|---------------------------|
D|---------------------------|
A|---------------------------|
E|---------------------------|

outro
e|-------------------------------------------|
B|-------------------------------------------|
G|-5---5---3---3--------8------5------3------|play until violin comes in
D|-5---5---3---3-3------8------5------3------|
A|-3---3---1---1-3------6------3------1------|
E|---------------1---------------------------|


| /  slide up
| \  slide down
| h  hammer-on
| p  pull-off
| ~  vibrato
| +  harmonic
| x  Mute note
============================================================================
Comments