Whitmore - Too Long Too Late Chords & Tabs

 

Too Long Too Late Chords & Tabs

Whitmore Chords & Tabs

Version: 1 Type: Tab 0 ratings
1 star 2 stars 3 stars 4 stars 5 stars
comments

Too Long Too Late Tab

   
Don't be put off by this tab. It's quite an easy and fun
song to play.

! - Means kill the note stright away.
/ - Slide
~ - Let the note ring for how ever many beats

Intro
e:--------------------------------------------------|
B:--------------------------------------------------|
G:55-55557799-----------------------4455------------|
D:55-5555779955-5555-55-5555-77-777744553-3-3--3335-|
A:33-3333557755-5555-55-5555-77-777722333-3-3--3335-|
E:-----------33-3333-33-3333-55-5555----1-1-1--1113-|

e:--------------------------------------------|
B:--------------------------------------------|
G:55-55557799-----------------------4455------|
D:55-5555779955-5555-55-5555-77-777744553-3-3-|
A:33-3333557755-5555-55-5555-77-777722333-3-3-|
E:-----------33-3333-33-3333-55-5555----1-1-3-|

Verse (Strum, but scratch the strings with the pick.
I use the side of the pick and slightly palm mute while
bouncing your fingers on the frets. Really cool effect)
e:------------------    |----|
B:------------------    |----|
G:55554444----------    |----|
D:555544447777777777 X4 |5~~~|
A:333322227777777777    |5~~~|
E:--------5555555555    |3~~~|
[ Tab from: http://www.guitartabs.cc/tabs/w/whitmore/too_long_too_late_tab.html ]
Chorus
e:--------------------------------|
B:--------------------------------|
G:5555555555555555----------------|
D:55555555555555555555555555555555|
A:33333333333333335555555555555555|
E:----------------3333333333333333|

e:----------------------1-0-------    |-----------|
B:--------------------------3-1---    |-----------|
G:--------------------------------    |-----------|
D:777777777777777733333----------- X2 |7----------|~~3~~/5!
A:777777777777777733333-----------    |7----------|~~3~~/5!
E:555555555555555511111-----------    |5----------|~~1~~/3!

INTRO
VERSE: This time, strum quite heavy with lots of palm mute.
CHORUS

Bridge
e:----------------------    |-----------------------|
B:----------------------    |-------------------68--|
G:--------5--77777777---    |--------5--7777777757--|
D:7777777755-7777777735- X2 |7777777755-7777777735--| X2
A:7777777735-5555555535-    |7777777735-55555555----|
E:55555555-3---------13-    |55555555-3-------------|

e:------------------------------1-0-------|
B:----------------------------------3-1---|
G:5!--------------------------------------|
D:5!--5!--777777777777777733333-----------|
A:3!--5!--777777777777777733333-----------|
E:----3!--555555555555555511111-----------|

CHORUS X1
INTRO X2
End
e:-------------------|
B:-------------------|
G:-5~~~~~~~~~~~~~~~~~|
D:55~~~~~~~~~~~~~~~~~|
A:53~~~~~~~~~~~~~~~~~|
E:3------------------|

It sounds right to me. But I could be wrong. Have a go with it.
It's a class song.

Az The Spaz
aarondavies (at) hotmail (dot) CO (dot) UK
Comments