Whitmore - Tell You Twice Chords & Tabs

 

Tell You Twice Chords & Tabs

Whitmore Chords & Tabs

Version: 1 Type: Bass Tab 0 ratings
1 star 2 stars 3 stars 4 stars 5 stars
comments

Tell You Twice Bass Tab

Whitmore - Tell you twice
Album - Smoke the roach
Regular tuning
Tabbed by James Lindsay
 
Intro

|--------------------------------------------------------------|
|--------------------------------------------------------------|
|------------------------------------------------------4-5-6-7-|
|-4h5-5-54h5-5-54h5-5-54h5-5-54h5-5-5-4h5-5-5--4-5---------|

Verse
[ Tab from: http://www.guitartabs.cc/tabs/w/whitmore/tell_you_twice_btab.html ]
|-------------------------|
|----2---2----4--2--------|
|--0---0----2------4--2---|
|-------------------------|

Chorus

|---------------------------------------------------------------------|
|---4-5-6-----------4-5-6-------------------4-5-6---------------------|
|-5--------4-5-6--5--------4-5-6---1-2-3-5-------5-5-5-5-5-5-5-4-3-2-|
|---------5---------------5-------2-----------------------------------|

Interlude

|---------| |-------------|
|---------| |-------------|
|---------| |-----4-5-6-7-|
|-4h5-5-5-| |--4-5--------|

End on

|----|
|----|
|-6*-|
|----|
Comments