Whitmore - On The Ceiling Chords & Tabs

 

On The Ceiling Chords & Tabs

Whitmore Chords & Tabs

Version: 1 Type: Bass Tab 0 ratings
1 star 2 stars 3 stars 4 stars 5 stars
comments

On The Ceiling Bass Tab

   
-------------------------------------------------------------------------------
			     ON THE CEILING - Whitmore
-------------------------------------------------------------------------------

Tabbed By : SkutterMike
e-mail: mike@skutter.cjb.net

Tuning: Standard

Intro:

G|---------|
D|---------|
A|--3------|
E|----4-3--|

(As well as being in the intro, this part below is the post-chorus,
you'll hear when it comes in.)

G|---------------------|
D|---------------------|
A|--3-333-333-3-3-2-3--|	Repeat 3 Times
E|---------------------|

G|-----------------|
D|-----------------|
A|--3-333-33-------|
E|-----------3/15--|

Verse:
[ Tab from: http://www.guitartabs.cc/tabs/w/whitmore/on_the_ceiling_btab.html ]
G|-------------------------------------------------------|
D|-------------------------------------------------------|
A|--3-3-3-3-3-3-----------------------------------3-4-3--|
E|--------------0-0-0-0-0-0-1-1-1-1-1-1-3-3-3-3-3--------|

Chorus:

G|---------------------------|
D|---------------------------|
A|---------------------------|	Repeat 3 Times
E|--5-5-5-5-5-5-3-3-3-3-3-3--|

Interlude:

G|-----------------------------------|
D|-----------------------------------|
A|--3-3-3-3-3-3-3h4-6-6-6-6-6-6-6p4--|
E|-----------------------------------|

Ending:

G|--------------------------------------|
D|--------------------------------------|
A|----4-5-6---4-5-6---4-5-6-7-6-3-4-3/--|
E|--5-------5-------5-------------------|


| /  slide up
| \  slide down
| h  hammer-on
| p  pull-off
| ~  vibrato
| +  harmonic
| x  Mute note
===============================================================================
Comments