Whitmore - Nine Bar Blues Chords & Tabs

 

Nine Bar Blues Chords & Tabs

Whitmore Chords & Tabs

Version: 1 Type: Tab 0 ratings
1 star 2 stars 3 stars 4 stars 5 stars
comments

Nine Bar Blues Tab

#----------------------------------PLEASE NOTE--------------------------------#
#This file is the author's own work and represents their interpretation of the#
#song. You may only use this file for private study, scholarship, or research.#
#-----------------------------------------------------------------------------#
#-- File created with Instab - http://www.pconline.com/~smcarey/instab.html --#
#-----------------------------------------------------------------------------#

Author/Artist: Whitmore
Title: Nine Bar Blues
Album: Smoke The Roach
Transcribed by: Ally Young
If you want more UK Ska Punk tabs stay posted, i did the 4ft fingers tab aswell

Song Order

Intro 1

Intro 2

Verse

Pre Chorus

Chorus

Intro 2

Verse (bass only)

Pre Chorus

Chorus

Intro 1

Chorus

End Chorus (Modulated)

END

-|-------------------------------------------------------------|--------------
-|---------5b---------5b---------5b-------------------------5h-|--------------
-|-------------------------------------------------------------|--------------
-|-2----------2----------2-------------------------------------|--------------
-|-2-2-2-2----2-2-2-2----2-2-2-2----2-2-2-2-2-2-2-2-2-2-2-2----|--------------
-|-0-0-0-0----0-0-0-0----0-0-0-0----0-0-0-0-0-0-0-0-0-0-0-0----|--------------
 Intro 1                                                                      

-|----------------------------------|---------------------------------|-------
-|----------------------------------|---------------------------------|-------
-|-9-9-9-9--------------------------|-9-9-9-9-9-9-9-9-9-9-9-9-9-9-9-9-|-------
-|-x-x-x-x-10101010-5-5-5-5-9-9-9-9-|-x-x-x-x-x-x-x-x-x-x-x-x-x-x-x-x-|-------
-|-7-7-7-7-x-x-x-x--x-x-x-x-x-x-x-x-|-7-7-7-7-7-7-7-7-7-7-7-7-7-7-7-7-|-------
-|---------8-8-8-8--3-3-3-3-7-7-7-7-|---------------------------------|-------
 Intro 2 (repeat twice then play)     Play once then play intro 2 once        

-|-----------------|-----------------|-----------------|-----------------|----
-|-----------------|-----------------|-----------------|-----------------|----
-|-----------------|-----------------|-----------------|-----------------|----
-|-9-9-9-9-9-9-9-9-|-----------------|-----------------|-----------------|----
-|-7-7-7-7-7-7-7-7-|-1010101010101010|-5-5-5-5-5-5-5-5-|-9-9-9-9-9-9-9-9-|----
-|-----------------|-8-8-8-8-8-8-8-8-|-3-3-3-3-3-3-3-3-|-7-7-7-7-7-7-7-7-|----
 Verse (all palm muted)                                                       

-|---------------------------------|-----------------------|------------------
-|---------------------------------|-----------------------|------------------
-|---------------------------------|-----------------------|------------------
-|---------------------------------|-4-4-4-4-4-4-4-4-4-----|------------------
-|-5-5-5-5-5-5-5-5-5-5-5-5-5-5-5-5-|-2-2-2-2-2-2-2-2-2-----|------------------
-|-3-3-3-3-3-3-3-3-3-3-3-3-3-3-3-3-|-----------------------|------------------
 Pre Chorus  (palm muted)                                                     

-|-----------------|-----------------|-----------------|-----------------|----
-|-----------------|-----------------|-----------------|-----------------|----
-|-----------------|-9-9-9-9-9-9-9-9-|-5-5-5-5-5-5-5-5-|-7-7-7-7-7-7-7-7-|----
-|-5-5-5-5-5-5-5-5-|-9-9-9-9-9-9-9-9-|-5-5-5-5-5-5-5-5-|-7-7-7-7-7-7-7-7-|----
-|-5-5-5-5-5-5-5-5-|-7-7-7-7-7-7-7-7-|-3-3-3-3-3-3-3-3-|-5-5-5-5-5-5-5-5-|----
-|-3-3-3-3-3-3-3-3-|-----------------|-----------------|-----------------|----
 Chorus                                                                       
[ Tab from: http://www.guitartabs.cc/tabs/w/whitmore/nine_bar_blues_tab.html ]
-|-----------------|-----------------|-----------------|-----------------|----
-|-----------------|-----------------|-----------------|-----------------|----
-|-----------------|-----------------|-5-5-5-5-5-5-5-5-|-7-7-7-7-7-7-7-7-|----
-|-5-5-5-5-5-5-5-5-|-----------------|-5-5-5-5-5-5-5-5-|-7-7-7-7-7-7-7-7-|----
-|-5-5-5-5-5-5-5-5-|-5-5-5-5-5-5-5-5-|-3-3-3-3-3-3-3-3-|-5-5-5-5-5-5-5-5-|----
-|-3-3-3-3-3-3-3-3-|-2-2-2-2-2-2-2-2-|-----------------|-----------------|----
                                                                              

-|-----------------|-----------------|-----------------|-----------------|----
-|-----------------|-----------------|-----------------|-----------------|----
-|-----------------|-9-9-9-9-9-9-9-9-|-5-5-5-5-5-5-5-5-|-7-7-7-7-7-7-7-7-|----
-|-5-5-5-5-5-5-5-5-|-9-9-9-9-9-9-9-9-|-5-5-5-5-5-5-5-5-|-7-7-7-7-7-7-7-7-|----
-|-5-5-5-5-5-5-5-5-|-7-7-7-7-7-7-7-7-|-3-3-3-3-3-3-3-3-|-5-5-5-5-5-5-5-5-|----
-|-3-3-3-3-3-3-3-3-|-----------------|-----------------|-----------------|----
                                                                              

-|-----------------|-----------------|----------------------------------------
-|-----------------|-----------------|----------------------------------------
-|-5---------------|-----------------|----------------------------------------
-|-5--5-5-5-5-5-5--|-7-7-7-7-7-7-7-7-|----------------------------------------
-|-3--3-3-3-3-3-3--|-5-5-5-5-5-5-5-5-|----------------------------------------
-|-----------------|-----------------|----------------------------------------
      p.m...........................                                          

-|-----------------|-----------------|-----------------|-----------------|----
-|-----------------|-----------------|-----------------|-----------------|----
-|-----------------|-----------------|-7-7-7-7-7-7-7-7-|-9-9-9-9-9-9-9-9-|----
-|-7-7-7-7-7-7-7-7-|-4-4-4-4-4-4-4-4-|-7-7-7-7-7-7-7-7-|-9-9-9-9-9-9-9-9-|----
-|-7-7-7-7-7-7-7-7-|-4-4-4-4-4-4-4-4-|-5-5-5-5-5-5-5-5-|-7-7-7-7-7-7-7-7-|----
-|-5-5-5-5-5-5-5-5-|-2-2-2-2-2-2-2-2-|-----------------|-----------------|----
 End Chorus (Modulated)                                                       

-|-----------------|-----------------|-----------------|-----------------|----
-|-----------------|-----------------|-----------------|-----------------|----
-|-----------------|-----------------|-7-7-7-7-7-7-7-7-|-9-9-9-9-9-9-9-9-|----
-|-7-7-7-7-7-7-7-7-|-----------------|-7-7-7-7-7-7-7-7-|-9-9-9-9-9-9-9-9-|----
-|-7-7-7-7-7-7-7-7-|-7-7-7-7-7-7-7-7-|-5-5-5-5-5-5-5-5-|-7-7-7-7-7-7-7-7-|----
-|-5-5-5-5-5-5-5-5-|-4-4-4-4-4-4-4-4-|-----------------|-----------------|----
                                                                              

-|-----------------|-----------------|-----------------|-----------------|----
-|-----------------|-----------------|-----------------|-----------------|----
-|-----------------|-----------------|-7-7-7-7-7-7-7-7-|-9-9-9-9-9-9-9-9-|----
-|-7-7-7-7-7-7-7-7-|-4-4-4-4-4-4-4-4-|-7-7-7-7-7-7-7-7-|-9-9-9-9-9-9-9-9-|----
-|-7-7-7-7-7-7-7-7-|-4-4-4-4-4-4-4-4-|-5-5-5-5-5-5-5-5-|-7-7-7-7-7-7-7-7-|----
-|-5-5-5-5-5-5-5-5-|-2-2-2-2-2-2-2-2-|-----------------|-----------------|----
                                                                              

-|-----------------|-----------------|----------------------------------------
-|-----------------|-----------------|----------------------------------------
-|-7---------------|-----------------|----------------------------------------
-|-7--7-7-7-7-7-7--|-9-9-9-9-9-9-9-9-|----------------------------------------
-|-5--5-5-5-5-5-5--|-7-7-7-7-7-7-7-7-|----------------------------------------
-|-----------------|-----------------|----------------------------------------
      p.m...........................                                          

Comments