Whitmore - Listed Chords & Tabs

 

Listed Chords & Tabs

Whitmore Chords & Tabs

Version: 1 Type: Bass Tab 0 ratings
1 star 2 stars 3 stars 4 stars 5 stars
comments

Listed Bass Tab

   
-------------------------------------------------------------------------------
			     Listed - Whitmore
-------------------------------------------------------------------------------

Tabbed By : Mikeskutter
e-mail: mike@skutter.cjb.net

Tuning: Standard

Intro/Verse:
			    1st time    2nd time	*=Hold Note
G|-------------------------|-----------|-------------------------------------|
D|------5----5---5---------|-----------|-------------------------------------|
A|--3-6---6----6-----6---6-|-5-6-7-5-7-|-5*----------------------------------|
E|-----------------4---4---|-----------|-------------------------------------|

Little overdriven' Break:

G|---------------|
D|---------------|
A|---------------|
E|--4-4-4-3-3-3--|

In my band, I used to slide down to 1 from about 10 for the start of the chorus

Chorus:
[ Tab from: http://www.guitartabs.cc/tabs/w/whitmore/listed_btab.html ]
G|---------------------------------------------------------------------------|
D|---------------------------------------------------------------------------|
A|---------------------------------------------------------------------------|
E|1-1-1-1-1-1-1-1-3-3-3-3-3-3-3-3--------------------------------------------|

Break:

This sounds cool with a bit of chorus

G|---------------------------------------------------------------------------|
D|----0-1-3------------------------------------------------------------------|
A|--3-------5-5-5h6\3--------------------------------------------------------|
E|---------------------------------------------------------------------------|

Fast ska bit:

G|---------------------------------------------------------------------------|
D|------5--------------------------------------------------------------------|
A|--3-5---5----66----55------------------------------------------------------|
E|----------44----33---------------------------------------------------------|



| /  slide up
| \  slide down
| h  hammer-on
| p  pull-off
| ~  vibrato
| +  harmonic
| x  Mute note
===============================================================================
Comments