Whitmore - Closing Doors Chords & Tabs

 

Closing Doors Chords & Tabs

Whitmore Chords & Tabs

Version: 1 Type: Bass Tab 0 ratings
1 star 2 stars 3 stars 4 stars 5 stars
comments

Closing Doors Bass Tab

Whitmore - Closing Doors
Album - Smoke the roach
Regular tuning

Kick-in

|------------------------------------------------------------------|
|--------------------------------------2-------2-----2-------------|
|----------------------------------4-4---4-4-4--4-4-4--4-4-4-------|
|-5-5-5-5-5-5-5-0--2-2-2-2-2-2-2-0---------------------------4-4-4-|

Verse

|-------------------------------------------------|
|-------------------------------------------------|
|---------------4-4-4-4-4-4-4---------------------|
|-5-5-5-5-5-5-5---------------2-2-2-2-2-2-2-0-0-0-|
P.M..............................................

Chorus [part in () let ring on last repeat]
[ Tab from: http://www.guitartabs.cc/tabs/w/whitmore/closing_doors_btab.html ]
|------------------------------------------------|
|------------------------------------------------|
|------------------------------------------5-5-5-|
|-5-5-5-5-5-5--0-0-0-0-0-0--2-2-2-2-2-(2)--------|

Bridge

|-------------------------------------------------------|
|-------------------------------------------------------|
|-------------------------------------------------------|
|-2-2-2-2-2-2-2--0-0-0-0-0-0-0--5-5-5-5-5-5-5-5-5-5-4-4-|
P.M.....................................................

Bridge 2

|-------------------------------------------------------|
|-------------------------------------------------------|
|-------------------------------------------------------|
|-2-2-2-2-2-2-2--0-0-0-0-0-0-0--5-5-5-5-5-5-5-5-5-5-4-4-|

Interlude

|---------------------------------|
|---------------------------------|
|---------------------------------|
|-x-x-5-5-x-x-0-0-x-x-2-2-x-x-0-0-|
Comments