Whitmore - Alison Chords & Tabs

 

Alison Chords & Tabs

Whitmore Chords & Tabs

Version: 1 Type: Tab 0 ratings
1 star 2 stars 3 stars 4 stars 5 stars
comments

Alison Tab

this is there website... http://www.whitmore.info/index2.htm

hey guys and girls...this is a fairly new song thats out now on p-rock at the
moment. i searched everywhere for it and couldnt find tabs for it anywhere so i
took it apon myself... all the chugging in this song is done with down and up
strokes very quickly so get yourself a bendy pick... the only bit i dont think's
right is the first breakdown but this is still only my second tab so go easy with
the abusive e-mails... so i've also put the lyrics of the song at the bottom to
make up for it... enjoy!

INTRO
e|-----------------|-------------------|
B|-----------------|-------------------|
G|-----------------|-------------------|
D|-5-x-x-x-x-x-x-x-|-5-x-x-x-x-x-x-x-x-|
A|-3-x-x-x-x-x-x-x-|-3-x-x-x-x-x-x-x-x-|
E|-----------------|-------------------|

VERSES - "think about you every now and then...."
e|---------|---------|---------|---------|
B|---------|---------|---------|---------|
G|---------|---------|---------|---------|
D|-5-x-x-x-|---------|---------|---------|
A|-3-x-x-x-|-7-x-x-x-|-5-x-x-x-|-3-x-x-x-|
E|---------|-5-x-x-x-|-3-x-x-x-|-1-x-x-x-|

BRIDGE - "i cant take anymore, what is my heart for"
e|---------|---------|
B|---------|---------|
G|---------|---------|
D|-5-------|-5---5---|
A|-3-------|-3---3---| play chord once each and let ring

CHORUS - alison, i wanna talk to you..."
e|-----------------|-----------------|-----------------|-----------------|
B|-----------------|-----------------|-----------------|-----------------|
G|-----------------|-----------------|-----------------|-----------------|
D|-5-5-5-5-5-5-5-5-|-----------------|-----------------|-----------------|
A|-3-3-3-3-3-3-3-3-|-5-5-5-5-5-5-5-5-|-7-7-7-7-7-7-7-7-|-3-3-3-3-3-3-3-3-|
E|-----------------|-3-3-3-3-3-3-3-3-|-5-5-5-5-5-5-5-5-|-1-1-1-1-1-1-1-1-|
[ Tab from: http://www.guitartabs.cc/tabs/w/whitmore/alison_tab.html ]
POST CHORUS - "alison, alison"
e|-----------------|-----------------|-----------------|-----------------|
B|-----------------|-----------------|-----------------|-----------------|
G|-----------------|-----------------|-----------------|-----------------|
D|-5-5-5-5-5-------|-----------------|-----------------|-----------------|
A|-3-3-3-3-3-------|-5-5-5-5-5-------|-7-7-7-7-7-------|-3-3-3-3-3-------|
E|-----------------|-3-3-3-3-3-------|-5-5-5-5-5-------|-1-1-1-1-1-------|

VERSE AGAIN

BRIDGE AGAIN

CHORUS AGAIN

POST CHORUS AGAIN

BREAKDOWN 1 - "Time has passed and things have changed"
e|-----------------|-----------------|-----------------|-----------------|
B|-----------------|-----------------|-----------------|-----------------|
G|-----------------|-----------------|-----------------|-----------------|
D|-5-5-5-5-5-5-5-5-|-----------------|-----------------|-----------------|
A|-3-3-3-3-3-3-3-3-|-5-5-5-5-5-5-5-5-|-7-7-7-7-7-7-7-7-|-3-3-3-3-3-3-3-3-|
E|-----------------|-3-3-3-3-3-3-3-3-|-5-5-5-5-5-5-5-5-|-1-1-1-1-1-1-1-1-|

BREAKDOWN 2 
no guitar is played at this point only bass

CHORUS AGAIN

CHORUS AGAIN

OUTRO
e|---------|
B|---------|
G|---------|
D|-5-------|
A|-3-------|fade out

VERSE ONE
Think about you every now and then
Then I get so alone again
All I know is Alison is gone
And you know I'll never cheat on you
Come back and I'll show you soon
Think about the way things used to be

BRIDGE
I can't take any more
What is my heart for?

CHORUS
Alison I wanna talk to you
Alison I'll be forever blue
Alison….Alison

VERSE TWO
Now you're gone
And friends is cool
I think of all the shit I put you through
Don't you know I'm glad that it's the end
I was alone when she came along
A brand new girl and a brand new song
Just to let you know that things are done

BRIDGE
I can't take any more
What the fuck is my life for?

CHORUS
Alison I wanna talk to you
Alison I'll be forever blue
Alison….Alison

BREAKDOWN 1
Time has passed and things have changed
But I think you've stayed the same
Time has passed and I'm alright
Come check out this new girlfriend of mine

BREAKDOWN 2
Don't wanna talk about this
Don't wanna talk about it
Don't wanna talk about this….no no

CHORUS
Alison….I wanna talk to you
Alison….I'll be forever blue
Alison….don't wanna talk to you
Alison….I'll always cheat on you….Fuck you! 

hope you all appreciate it... its a great song from a great band...
let me know what you think less_than_casey@hotmail.com! x
Comments