Whitmore - Alison Chords & Tabs

 

Alison Chords & Tabs

Whitmore Chords & Tabs

Version: 1 Type: Bass Tab 0 ratings
1 star 2 stars 3 stars 4 stars 5 stars
comments

Alison Bass Tab

Whitmore
Alison
Tabbed by Ewan M

Verse
G|--------------------------
D|--------------------------
A|-33333--------------------
E|-------55555-33333-11111--

Pre-Chorus
G|-------------
D|-------------
A|-----5-5532--
E|-3-----------
[ Tab from: http://www.guitartabs.cc/tabs/w/whitmore/alison_btab.html ]
Chorus
G|----------------------
D|----------------------
A|-3333-----------------
E|------3333-5555-1111--

Pre-solo
G---------------------------------------
D---------------------------------------
A-33333333------------------------------
E----------333333333-55555555-11111111--

Solo
G|------------7-----9-----------
D|-----5--555---777-------------
A|-333------------------88-7-5--
E|------------------------------
Comments