Whitesnake - Would I Lie To You Chords & Tabs

 

Would I Lie To You Chords & Tabs

Whitesnake Chords & Tabs

Version: 1 Type: Chords 0 ratings
1 star 2 stars 3 stars 4 stars 5 stars
comments

Would I Lie To You Chords

Would I Lie to you
Whitesnake
written by Coverdale, Marsdon

standard tuning
[ Tab from: http://www.guitartabs.cc/tabs/w/whitesnake/would_i_lie_to_you_crd.html ]
MAIN RIF X2
E ---------------|---------------|----------------|---------------|-----------------|
B ---------------|---------------|----------------|---------------|-----------------|
G ---4-4-2-4-----|---4-4-2-4-----|----------------|---------------|---4-4-2-4-------|
D ---4-4-2-4-----|---4-4-2-4-----|---4-4-2-4------|---4-4-2-4-----|---4-4-2-4-------|
A ---2-2-0-4-----|---2-2-0-2-----|---4-4-2-4------|---4-4-2-4-----|---2-2-0-2-------|
E----------------|---------------|---2-2-0-2------|---2-2-0-2-----|-----------------|

E----------------|---------------|----------------|
B----------------|---------------|----------------|
G---7------------|---4-4-2-4-----|----------------|
D---7-7----------|---4-4-2-4-----|------7---------|
A---5-7----------|---2-2-0-4-----|------7---------|
E-----5----------|---------------|------5---------|


CHROUS

Comments