Whitesnake - Looking For Love Chords & Tabs

 

Looking For Love Chords & Tabs

Whitesnake Chords & Tabs

Version: 2 Type: Tab 0 ratings
1 star 2 stars 3 stars 4 stars 5 stars
comments

Looking For Love Tab

Looking for love - Whitesnake 

Tabbed by - msd - Lebanon

Verse:

   
e|---------3---------------2-------|---------3---------------2-------|
B|-----------0-----------0---0-----|-----------0-----------0---0-----|
G|-------0-----0-------0-------0---|-------0-----0-------0-------0---|
D|-----2---------2---2-----------2-|-----2---------2---2-----------2-|
A|---2-------------2---------------|---2-------------2---------------|
E|-0-------------------------------|-0-------------------------------|
   1   &   2   &   3   &   4   &     1   &   2   &   3   &   4   &



e|---------------------------------|---------3-----2-----------------|
B|-------1-----3-----1---1-------0-|-----------0---------------------|
G|-----0---------------0-------0---|-------0-----0-------------------|
D|---2-------4-----2---------4-----|-----2---------------------------|
A|-3-------5-----0---------2-------|---2-----------------------------|
E|---------------------------------|-0-------------------------------|
   1   &   2   &   3   &   4   &     1   &   2   &   3   &   4   &


Chorus:

  				
e|---------------------------------|---------------------------------|
B|---------------------------------|---------------------------------|
G|-5---------------7---------------|-2---------------4---------------|
D|-5-----------4-5-7-------7--5--4-|-2---------------4---------------|
A|-3-----------2-3-5-------5-3--2-|-0-----------5-7-2---------0-2-0-|
E|---------------------------------|-------------3-5-----------------|
   1   &   2   &   3   &   4   &     1   &   2   &   3   &   4   &
 
[ Tab from: http://www.guitartabs.cc/tabs/w/whitesnake/looking_for_love_tab_ver_2.html ]
          
e|---------------------------------|---------------------------------|
B|---------------------------------|---------------------------------|
G|-5---------------7---------------|---------------------------------|
D|-5-------5-------7---------------|-2-------------------------------|
A|-3-------3--4--5-5-------5-------|-2-------------------------------|
E|------------2--3------------3--2-|-0-------------------------------|
   1   &   2   &   3   &   4   &     1   &   2   &   3   &   4   &
  

Intermediate:

e|---------------------------------|---------------------------------|
B|---------------------------------|---------------------------------|
G|---------------------------------|---------------------------------|
D|---------7-----------------------|---------2-------2---------------|
A|---------7-------7-------7-------|---------2-------2---------------|
E|-3-0-2-0-5-----3-5-----3-5-------|-5-0-2---0-------0---------------|
   1   &   2   &   3   &   4   &     1   &   2   &   3   &   4   &


  
e|---------------------------------|---------------------------------|
B|---------------------------------|---------------------------------|
G|---------------------------------|---------------------------------|
D|---------7-----------------------|---------2-------2---------------|
A|---------7-------7-------7-------|---------2-------2---------------|
E|-3-0-2-0-5-----3-5-----3-5-------|-5-0-2---0-------0---------------|
   1   &   2   &   3   &   4   &     1   &   2   &   3   &   4   &


Chorus:

Solo:
Played over verse and chorus

Intermediate:

Chorus:

Intermediate:

Chorus:

Outro:

                                        
e|---------------------------------|---------------------------------|
B|---------------------------------|---------------------------------|
G|-9---------------7---------------|-5---------------7---------------|
D|-9---------------7---------------|-5---------------7---------------|
A|-7---------------5---------------|-3---------------5---------------|
E|---------------------------------|---------------------------------|
   1   &   2   &   3   &   4   &     1   &   2   &   3   &   4   &

Tabbed by - msd - Lebanon
Comments