Whitesnake - Here I Go Again Chords & Tabs

 

Here I Go Again Chords & Tabs

Whitesnake Chords & Tabs

Version: 1 Type: Tab 0 ratings
1 star 2 stars 3 stars 4 stars 5 stars
comments

Here I Go Again Tab

#----------------------------------PLEASE NOTE---------------------------------#
#This file is the author's own work and represents their interpretation of the #
#song. You may only use this file for private study, scholarship, or research. #
#------------------------------------------------------------------------------##

Whitesnake - Here I go again
Tabber: Unknown

Intro:
GDCGDC
e|-3---2---0---------3---2---0------------------------|
B|-3---3---1---------3---3---1------------------------|
G|-0---2---0-------0-0---2---0------------------------|
D|-0---0---2---0-2---0---0---2------------------------|
A|-2---x---3---------2---x---3------------------------|
E|-3---x---x---------3---x---x------------------------|


e|-3----------2--------------0------------------------|
B|-3----------3--------------1------------------------|
G|-0----------2--------------0-----------0------------|
D|-0----------0--------------2-------0-2--------------|
A|-2----------x--------------3------------------------|
E|-3----------x--------------x------------------------|

e|-3------2--------------0----------------------------|
B|-3------3--------------1----------------------------|
G|-0------2--------------0-----------0----------------|
D|-0------0--------------2-------0-2------------------|
A|-2------x--------------3----------------------------|
E|-3------x--------------x----------------------------|
[ Tab from: http://www.guitartabs.cc/tabs/w/whitesnake/here_i_go_again_tab.html ]
e|-3---------------2--------------0-----------------0-|
B|-3---------------3--------------1-----------------1-|
G|-0---------------2--------------0-----------------2-|
D|-0---------------0--------------2-----------------2-|
A|-2---------------x--------------3------------3--2-0-|
E|-3---------------x--------------x-----------------x-|

e|---------------------2----------------------------0-|
B|---------------------3----------------------------1-|
G|---------------------2----------------------------2-|
D|---------------------0----------------------------2-|
A|---------------------x------------------------3-2-0-|
E|---------------------x----------------------------x-|

e|--------------------------2-------------------------|
B|--------------------------3-------------------------|
G|--------------------------2-------------------------|
D|--------------------------0-------------------------|
A|--------------------------x-------------------------|
E|--------------------------x-------------------------|

e|----------------0-------------------------------0-0-|
B|----------------0-------------------------------1-1-|
G|----------------0-------------------------------2-0-|
D|----------------2-------------------------------2-2-|
A|----------------2-------------------------------0-3-|
E|----------------0-------------------------------x-x-|

e|----------------3-0-0-0-2---------------------------|
B|----------------3-0-1-1-3---------------------------|
G|----------------0-0-2-0-2---------------------------|
D|----------------0-2-2-2-0---------------------------|
A|----------------2-2-0-3-x---------------------------|
E|----------------3-0-x-x-x---------------------------|



Chords Used:
GDCAmEmAm7
e|-3---2---0---0---0---0------------------------------|
B|-3---3---1---1---0---1------------------------------|
G|-0---2---0---2---0---0------------------------------|
D|-0---0---2---2---2---2------------------------------|
A|-2---x---3---0---2---0------------------------------|
E|-3---x---x---x---0---x------------------------------|

Have fun,
Comments