Whitesnake - Here I Go Again Chords & Tabs

 

Here I Go Again Chords & Tabs

Whitesnake Chords & Tabs

Version: 2 Type: Bass Tab 0 ratings
1 star 2 stars 3 stars 4 stars 5 stars
comments

Here I Go Again Bass Tab

Artist:Whitesnake
Song:Here I Go Again
Tabbed By:Gary Hricewich
E-mail:snapper2001@msn.com


INTRO/2 VERSES/NO BASS
[ Tab from: http://www.guitartabs.cc/tabs/w/whitesnake/here_i_go_again_btab_ver_2.html ]
                                                       
     CHORUS                2X
G---|------|-----|-----|------|-----|-----|-----|-----|
D---|*-----|-----|-----|-----*|-----|-----|-----|-----|
A---|*-----|-3-3-|-5-5-|-3-5-*|-----|-3-3-|-5-5-|-5-3-|
E---|--3-3-|-----|-----|------|-3-3-|-----|-----|-----|
                                                       
                                                      
                                     2X  CHORUS END
G---|-----------------------------------|----------|
D---|*---------------------------------*|----------|
A---|*-----------------5-5-5-5-5-5-5-5-*|--3-5-----|
E---|--5-5-5-5-5-5-5-5------------------|----------|
                                                      
                                                                          
     VERSE                            2X
G---|-------------------------------------|------------------------------|
D---|*-----------------------------------*|------------------------------|
A---|*---------5-5-5-5-5-3-3-3-3-3-3-3-5-*|---------5-5-5-5-3-3-3-3--5-3-|
E---|--3-3-3-3----------------------------|-3-3-3-3----------------------|
                                                                          
                                                     
                                     2X  VERSE END
G---|-----------------------------------|---------|
D---|*---------------------------------*|---------|
A---|*-----------------5-5-5-5-5-5-5-5-*|-3-5-----|
E---|--5-5-5-5-5-5-5-5------------------|---------|
                                                     
     CHORUS                                                
                                                                          
                                                                     
     BRIDGE TO GUITAR SOLO          3X
G---|-----------------------------------|---------------------|-----|
D---|*---------------------------------*|---------------------|-----|
A---|*-7-7-7-7-7-7-7-7-----------------*|-7-7-7-7-7-7-7-7-----|-3-5-|
E---|------------------5-5-5-5-5-5-5-5--|-------------------5-|-----|
                                                                     
                                                                     
     GUITAR SOLO/SAME AS VERSE
     CHORUS 3X/FADE OUT ON 3RD TIME
Comments