Whitesnake - Give Me All Your Love Tonight Chords & Tabs

 

Give Me All Your Love Tonight Chords & Tabs

Whitesnake Chords & Tabs

Version: 1 Type: Tab 1 rating
1 star 2 stars 3 stars 4 stars 5 stars
comments

Give Me All Your Love Tonight Tab


   GIVE ME ALL YOUR LOVE TONIGHT   BY   Whitesnake

[ Tab from: http://www.guitartabs.cc/tabs/w/whitesnake/give_me_all_your_love_tonight_tab.html ]
E-----------------------------------------------------------------
B-----------------------------------------------------------------
G-------2---4-5-----2---4-5---------------------------------------
D-------2---5-5-----2---5-5-----------5-5-5-5-5-5-----------------
A-------0-----------0---------3-3-----3-3-3-3-3-3-5-5-5-5-5-5-----
e-----3-----------3-----------1-1-----------------3-3-3-3-3-3-----


E-------------------------------------
B-------------------------------------
G-------------4-5-------7-7-5---------
D-------------5-5-------7-7-5---------
A-----0-0-0-0-----0-0-0---------------
e-------------------------------------


THATS IT!!!!!!!        WE WISH YOU WELL.....

            99c2stephenst@hinchbk.sch.uk
Comments