Whitesnake - Fool For Your Loving Chords & Tabs

 

Fool For Your Loving Chords & Tabs

Whitesnake Chords & Tabs

Version: 2 Type: Tab 0 ratings
1 star 2 stars 3 stars 4 stars 5 stars
comments

Fool For Your Loving Tab

   
Symbols used:                                           T
 p  - pull off          A.H. - Artificial harmonic     (12 ...) - tapped note
 b  - half bend         B    - full bend
 /  - slide upward      \    - slide downward
 PM - palm mute         h    - hammer on

  MAIN PART                                           A.H.
 |--------------------------------------------------|------------------------|
 |--------------------------------------------------|------------------------|
 |--------5--7p5-----5--5--7---------5--7p5--5-5----|------7B (w/ whammy bar)|
 |--------5--7p5-----5--5--7---------5--7p5--5-5--5-|------------------------|
 |----------------0-------------------------------5-|------------------------|
 |-3-5-5----------------------3-5-5-----------------|------------------------|

  This is played four times (except for the whammy thing which is played only
  once). By the third time it is changed slightly, like below.

 |---------------------------------------------------------------------------|
 |---------------------------------------------------------------------------|
 |--------5--7p5-----5--5--7---------5--7p5----------------------------------|
 |--------5--7p5-----5--5--7---------5--7p5--7h10p7--------------------------|
 |----------------0---------------------------------10p7---------------------|
 |-3-5-5----------------------3-5-5----------------------10p8h10-------------|

 PART 2 (2x) [don't know how to call this]
 |---------------------------------------------------------------------------|
 |--6-6-6-6---8-8-8-8--------------------------------------------------------|
 |--7-7-7-7---9-9-9-9-----------------------------5~~~~~---------------------|
 |--7-7-7-7---9-9-9-9-------------------------5------------------------------|
 |--5-5-5-5---7-7-7-7-----3----------3----5/7---7----------------------------|
 |----------------------5---5~~~~--5---5-------------------------------------|

 CHORUS
 |---------5\----------5\----------------------------------------------------|
 |---------5\----------5\----------------------------------------------------|
 |---------5\----------5\---------2--7-7-7-7--9-9-9-9-9-9-9-9----------------|
 |--3-5-7-------3-5-7-------3-5-2-2--7-7-7-7--9-9-9-9-9-9-9-9----------------|
 |--3-5-7-------3-5-7-------3-5-2-0--5-5-5-5--7-7-7-7-7-7-7-7----------------|
 |--1-3-5-------1-3-5-------1-3-0--------------------------------------------|
                                  P.M.(......................)
[ Tab from: http://www.guitartabs.cc/tabs/w/whitesnake/fool_for_your_loving_tab_ver_2.html ]
  BRIDGE                 SOLO
 |---------------------|--17\--------------------/17-------------------------|
 |---------------------|--17\--------------------/17--8B----8---8 p 5--7-----|
 |------9\7--5\4-------|--17\--5------9\7/12/14--/17----hold bend--------7---|
 |-2--------------5/7--|---------7p5-----------------------------------------|
 |-0----7\5--3\2-------|--------------7\5/10/12------------------------------|
 |----------------3/5--|-----------------------------------------------------|


 |---------------------------------------------------------------------------|
 |------------12b-12p10h12---15B 15p13----15-----------------------~~~-------|
 |-7B-7p5--7-|play 3 times|------------14------/17p16p14--/16p12--0-------0--|
 |-----------------------------------------------------------------w/bar-----|
 |---------------------------------------------------------------------------|
 |---------------------------------------------------------------------------|

                                                   T
 |-----------12\10-10\8--8\7--5--7--5------------(12-10p8p7h8h10)--|
 |---------------------------------------8/10\5--------------------|
 |------------9\-7--7\5--5\4--2--4--2----5/7-\2--------------------|
 |----2------------------------------------------------------------|
 |-5-----3/5-------------------------------------------------------|
 |-----------------------------------------------------------------|


 |---T-----------------------------------------------------------------------|
 |-(12-10p8p6h8h10)-----T----------------------------------------------------|
 |-[play it twice]---(12-9p7p5h7h9)-----T------------------------------------|
 |-------------------[play it twice]---(12-9p7p5h7h9)------------------------|
 |-------------------------------------[play it twice]---12-8-7-5-7-8--------|
 |---------------------------------------------------------------------------|


 |-19\17--15/17--17\15--12/15--15\12--12-----------------|
 |-----------------------------------------13\12---------|
 |-16\14--12/14--14\12---9/12--12\-9---9-----------12/14-|
 |-----------------------------------------10\-9---10/12-|
 |-------------------------------------------------------|
 |-------------------------------------------------------|


 |--13p12p10h12h15p12p10----------15B~~~---|
 |-------------------------13p10-----------|
 |-----------------------------------------|
 |-----------------------------------------|
 |-----------------------------------------|
 |-----------------------------------------|
Comments