Whitesnake - Bad Boys Chords & Tabs

 

Bad Boys Chords & Tabs

Whitesnake Chords & Tabs

Version: 1 Type: Tab 0 ratings
1 star 2 stars 3 stars 4 stars 5 stars
comments

Bad Boys Tab

   
#----------------------------------PLEASE NOTE---------------------------------#
#This file is the author's own work and represents their interpretation of the #
#song. You may only use this file for private study, scholarship, or research. #
#------------------------------------------------------------------------------##

-----------------------------------------------------------------------------
I didn't write this tab. The only places I've seen this great song tabbed out is in
Power Tab so I decided that it needs to be spread throughout the internet so I
converted it from Power Tab to regular tab.
-Andy S.
-----------------------------------------------------------------------------

                                    BAD BOYS
                            As recorded by Whitesnake


Gtr I (E A D G B E) - 'Gtr. 1'
Gtr II (E A D G B E) - 'Gtr. 2'
Gtr III (E A D G B E) - 'Gtr. 3'
Gtr IV (E A D G B E) - 'Gtr. 4'

  Q=150
 4/4
  Gtr I
  H    S S S S Q    S S S S E E E S S S S E   +E  E E S S E Q.
|-----------------|-------------------------|---------------------|
|-----------------|-------------------------|---------------------|
|-----------------|-------------------------|---------------------|
|-----------------|---------7-7-7---------7-|-(7)-7-7-----7-9\----|
|----------x-x-x--|---------5-4-5---------5-|-(5)-4-5-----5-7\----|
|-----------------|-0-0-0-0-------0-0-0-0---|---------0-0---------|


  Q.   E +H       +H     H      S S S S E E E S S S S E   +E  E E S S E Q.
|---------------|-------------|-------------------------|---------------------|
|---------------|-------------|-------------------------|---------------------|
|---------------|-------------|-------------------------|---------------------|
|-4----5-(5)----|-(5)---------|---------7-7-7---------7-|-(7)-7-7-----7-9\----|
|-3----3-(3)----|-(3)----x----|---------5-4-5---------5-|-(5)-4-5-----5-7\----|
|---------------|-------------|-0-0-0-0-------0-0-0-0---|---------0-0---------|


  Q.   E +Q   Q    +E  Q.   Q  Q
|----------------|----------------|
|----------------|----------------|
|----------------|----------------|
|-4----5-(5)--4--|-(4)-5----------|
|-3----3-(3)--3--|-(3)-3----7--7--|
|----------------|----------5--5--|


  S S S S E E E S S S S E   +E  E E S S E Q.
|-------------------------|---------------------|
|-------------------------|---------------------|
|-------------------------|---------------------|
|---------7-7-7---------7-|-(7)-7-7-----7-9\----|
|---------5-4-5---------5-|-(5)-4-5-----5-7\----|
|-0-0-0-0-------0-0-0-0---|---------0-0---------|


  Q.   E +E   E   E   E     +E    Q    Q   Q.
|------------------------|----------------------|
|------------------------|----------------------|
|----------------<5>-----|----------------------|
|-4----5-(5)-<5>-----<4>-|-(<4>)-<5>------------|
|-3----3-(3)-------------|------------<5>--x----|
|------------------------|----------------------|


  S S S S E E E S S S S E   +E  E E S S E Q.
|-------------------------|---------------------|
|-------------------------|---------------------|
|-------------------------|---------------------|
|---------7-7-7---------7-|-(7)-7-7-----7-9\----|
|---------5-4-5---------5-|-(5)-4-5-----5-7\----|
|-0-0-0-0-------0-0-0-0---|---------0-0---------|


  |-3-| |-3-| |-3-| |-3-| |-3-| |-3-| |-3-| |-3-|
  S S S S S S S S S S S S S S S S S S S S S S S S
|-------------------------------------------------|
|-------------------------------------------------|
|-3p2p0-------------3p2p0-------------3p2p0-------|
|-------3p2p0-------------3p2p0-------------3p2p0-|
|-------------3p2p0-------------3p2p0-------------|
|-------------------------------------------------|


                                ~
  |-3-| |-3-| |-3-| |-3-|
  S S S S S S S S S S S S E +E  Q
|----------------------------------|
|----------------------------------|
|-------3p2p0----------------------|
|-------------3p2p0----------------|
|-3p2p0-------------3p2p0----------|
|-------------------------3-(3)-3--|


  S S S S E E E S S S S E   +E  E E S S E Q.
|-------------------------|--------------------|
|-------------------------|--------------------|
|-------------------------|--------------------|
|---------7-7-7---------7-|-(7)-7-7-----7-9\---|
|---------5-4-5---------5-|-(5)-4-5-----5-7\---|
|-0-0-0-0-------0-0-0-0---|---------0-0--------|


  Q  E E +E  S S S S S S   S S E S S E +E  E +Q     S S S S E E E S S S S E
|------------------------|------------------------|-------------------------|
|------------------------|------------------------|-------------------------|
|------------------------|-----7-----7-(7)-7-(7)--|-------------------------|
|------------------------|-----7-----7-(7)-7-(7)--|---------7-7-7---------7-|
|-7----7-(7)-------------|------------------------|---------5-4-5---------5-|
|-5----5-(5)-5-5-7-7-8-8-|-8-8---8-8--------------|-0-0-0-0-------0-0-0-0---|


  +E  E E S S E Q.     Q  E E +E  S S S S S S   S S E S S E +E  E +Q
|--------------------|------------------------|------------------------|
|--------------------|------------------------|------------------------|
|--------------------|------------------------|-----7-----7-(7)-7-(7)--|
|-(7)-7-7-----7-9\---|------------------------|-----7-----7-(7)-7-(7)--|
|-(5)-4-5-----5-7\---|-7----7-(7)-------------|------------------------|
|---------0-0--------|-5----5-(5)-5-5-7-7-8-8-|-8-8---8-8--------------|


  S S S S S S S S S S S S S S S S   S S S S S S S S S S E S S S S
|---------------------------------|-------------------------------|
|---------------------------------|-------------------------------|
|-------------1-1-2-2-1-1---------|-------------1-1-2-2-4---------|
|-----1-1-4-4-------------4-4-1-1-|-----1-1-4-4---------4-4-4-1-1-|
|-2-2-----------------------------|-2-2---------------------------|
|---------------------------------|-------------------------------|


  Gtr II
  W                           W
|---------------------------|-------------|
|---------------------------|-------------|
|---------------------------|-------------|
|---------------------------|-------------|
|---------------------------|-------------|
|---------------------------|-------------|
|
| Gtr I
| S S E S S S S S S E S S E   Q  Q  Q  Q
|---------------------------|-------------|
|---------------------------|-------------|
|-----2-------------2-----2-|-2--2-----7--|
|-----2-------------2-----2-|-2--2--7--5--|
|-0-0---0-0-0-0-0-0---0-0---|-0--0--5-----|
|---------------------------|-------------|


  Q   H         +E   E    +Q.     E  +Q.     E
|----------------------|------------------------|
|-------------------13-|-(13)----12-(12)----10--|
|----12--------(12)-14-|-(14)----12-(12)----11--|
|----14--------(14)----|------------------------|
|----------------------|------------------------|
|----------------------|------------------------|
|
| Q   Q  +E  E   E   E    +Q   E  E  +Q   E  E
|----------------------|------------------------|
|----------------------|------------------------|
|----------------------|---------------------7--|
|-----9--(9)-----------|----------5--(5)-----7--|
|-----7--(7)-0---2---3-|--(3)--3--3--(3)--------|
|-0--------------------|------------------------|


   +Q       S  S  E  +Q.      E    +W
|----------10s12s10-(10)-----15-|-(15)-------------|
|-(10)-----10s12s10-(10)-----15-|-(15)-------------|
|-(11)--------------------------|------------------|
|-------------------------------|------------------|
|-------------------------------|------------------|
|-------------------------------|------------------|
|
|  +E  S S  E     E   E  E E  E    +E  E E E Q  Q
|-------------------------------|------------------|
|-------------------------------|------------------|
|--(7)------7---------7--7------|---------------7--|
|--(7)------7---------7--7----5-|--(5)-5-5-5-7--5--|
|------7h9--------9-----------3-|--(3)-3-3-3-5-----|
|-------------------------------|------------------|


  Q   H         +E   E    +Q.     E  +Q.     E
|----------------------|-----------------------|
|-------------------13-|-(13)----12-(12)----10-|
|----12--------(12)-14-|-(14)----12-(12)----11-|
|----14--------(14)----|-----------------------|
|----------------------|-----------------------|
|----------------------|-----------------------|
|
| Q   Q  +E  E   E   E    +Q   E  E  +Q   E  E
|----------------------|-----------------------|
|----------------------|-----------------------|
|----------------------|---------------------7-|
|-----9--(9)-----------|----------5--(5)-----7-|
|-----7--(7)-0---2---3-|--(3)--3--3--(3)-------|
|-0--------------------|-----------------------|


   +Q       S  S  E  +Q.      E    +W             +W
|----------10s12s10-(10)-----15-|-(15)---------|-(15)-----------------------|
|-(10)-----10s12s10-(10)-----15-|-(15)---------|-(15)-----------------------|
|-(11)--------------------------|--------------|----------------------------|
|-------------------------------|--------------|----------------------------|
|-------------------------------|--------------|----------------------------|
|-------------------------------|--------------|----------------------------|
|
|  +E  S S  E     E   E  E E  E     H.      Q      S  S S S E E E S S S S E
|-------------------------------|--------------|----------------------------|
|-------------------------------|--------------|----------------------------|
|--(7)------7---------7--7------|--------------|----------------------------|
|--(7)------7---------7--7----5-|---5----------|------------7-7-7---------7-|
|------7h9--------9-----------3-|---3-------x--|------------5-4-5---------5-|
|-------------------------------|--------------|---0--0-0-0-------0-0-0-0---|


   +W                    +W
|-(15)----------------|-(15)------------|
|-(15)----------------|-(15)------------|
|---------------------|-----------------|
|---------------------|-----------------|
|---------------------|-----------------|
|---------------------|-----------------|
|
|  +E  E E S S E Q.       Q.   E +H
|---------------------|-----------------|
|---------------------|-----------------|
|---------------------|-----------------|
|--(7)-7-7-----7-9\---|---4----5-(5)----|
|--(5)-4-5-----5-7\---|---3----3-(3)----|
|----------0-0--------|-----------------|


   +W            W
|-(15)---------|--------------------------|
|-(15)---------|--------------------------|
|--------------|--------------------------|
|--------------|--------------------------|
|--------------|--------------------------|
|--------------|--------------------------|
|
|  +H     H      S S S S E E E S S S S E
|--------------|--------------------------|
|--------------|--------------------------|
|--------------|--------------------------|
|--(5)---------|---------7-7-7---------7--|
|--(3)----x----|---------5-4-5---------5--|
|--------------|-0-0-0-0-------0-0-0-0----|


  Gtr I
  +E  E E S S E Q.     Q  E E +E  S S S S S S   S S E S S E +E  E +Q
|--------------------|------------------------|------------------------|
|--------------------|------------------------|------------------------|
|--------------------|------------------------|-----7-----7-(7)-7-(7)--|
|-(7)-7-7-----7-9\---|------------------------|-----7-----7-(7)-7-(7)--|
|-(5)-4-5-----5-7\---|-7----7-(7)-------------|------------------------|
|---------0-0--------|-5----5-(5)-5-5-7-7-8-8-|-8-8---8-8--------------|


  S S S S E E E S S S S E   +E  E E S S E Q.     Q  E E +E  S S S S S S
|-------------------------|--------------------|-------------------------|
|-------------------------|--------------------|-------------------------|
|-------------------------|--------------------|-------------------------|
|---------7-7-7---------7-|-(7)-7-7-----7-9\---|-------------------------|
|---------5-4-5---------5-|-(5)-4-5-----5-7\---|-7----7-(7)--------------|
|-0-0-0-0-------0-0-0-0---|---------0-0--------|-5----5-(5)-5-5-7-7-8-8--|


  S S E S S E +E  E +Q     S S S S S S S S S S S S S S S S
|------------------------|----------------------------------|
|------------------------|----------------------------------|
|-----7-----7-(7)-7-(7)--|-------------1-1-2-2-1-1----------|
|-----7-----7-(7)-7-(7)--|-----1-1-4-4-------------4-4-1-1--|
|------------------------|-2-2------------------------------|
|-8-8---8-8--------------|----------------------------------|


  Gtr II
  S S S S S S S S S S E E   E     W                           W
|-------------------------------|---------------------------|--------------|
|-------------------------------|---------------------------|--------------|
|-------------1-1-4s6s4-----4---|---------------------------|--------------|
|-----1-1-4-4-----4s6s4-6---4---|---------------------------|--------------|
|-2-2-------------------6-------|---------------------------|--------------|
|-------------------------------|---------------------------|--------------|
|
| Gtr I
| S S S S S S S S S S E S S S S   S S E S S S S S S E S S E   Q  Q  Q  Q
|-------------------------------|---------------------------|--------------|
|-------------------------------|---------------------------|--------------|
|-------------1-1-2-2-4---------|-----2-------------2-----2-|-2--2-----7---|
|-----1-1-4-4---------4-4-4-1-1-|-----2-------------2-----2-|-2--2--7--5---|
|-2-2---------------------------|-0-0---0-0-0-0-0-0---0-0---|-0--0--5------|
|-------------------------------|---------------------------|--------------|


  Q   H         +E   E    +Q.     E  +Q.     E
|----------------------|-----------------------|
|-------------------13-|-(13)----12-(12)----10-|
|----12--------(12)-14-|-(14)----12-(12)----11-|
|----14--------(14)----|-----------------------|
|----------------------|-----------------------|
|----------------------|-----------------------|
|
| Q   Q  +E  E   E   E    +Q   E  E  +Q   E  E
|----------------------|-----------------------|
|----------------------|-----------------------|
|----------------------|---------------------7-|
|-----9--(9)-----------|----------5--(5)-----7-|
|-----7--(7)-0---2---3-|--(3)--3--3--(3)-------|
|-0--------------------|-----------------------|


   +Q       S  S  E  +Q.      E    +W
|----------10s12s10-(10)-----15-|-(15)-------------|
|-(10)-----10s12s10-(10)-----15-|-(15)-------------|
|-(11)--------------------------|------------------|
|-------------------------------|------------------|
|-------------------------------|------------------|
|-------------------------------|------------------|
|
|  +E  S S  E     E   E  E E  E    +E  E E E Q  Q
|-------------------------------|------------------|
|-------------------------------|------------------|
|--(7)------7---------7--7------|---------------7--|
|--(7)------7---------7--7----5-|--(5)-5-5-5-7--5--|
|------7h9--------9-----------3-|--(3)-3-3-3-5-----|
|-------------------------------|------------------|


  Q   H         +E   E    +Q.     E  +Q.     E
|----------------------|-----------------------|
|-------------------13-|-(13)----12-(12)----10-|
|----12--------(12)-14-|-(14)----12-(12)----11-|
|----14--------(14)----|-----------------------|
|----------------------|-----------------------|
|----------------------|-----------------------|
|
| Q   Q  +E  E   E   E    +Q   E  E  +Q   E  E
|----------------------|-----------------------|
|----------------------|-----------------------|
|----------------------|---------------------7-|
|-----9--(9)-----------|----------5--(5)-----7-|
|-----7--(7)-0---2---3-|--(3)--3--3--(3)-------|
|-0--------------------|-----------------------|


   +Q       S  S  E  +Q.      E    +W
|----------10s12s10-(10)-----15-|-(15)-------------------|
|-(10)-----10s12s10-(10)-----15-|-(15)-------------------|
|-(11)--------------------------|------------------------|
|-------------------------------|------------------------|
|-------------------------------|------------------------|
|-------------------------------|------------------------|
|
|  +E  S S  E     E   E  E E  E     E  S S E E E E E S S
|-------------------------------|------------------------|
|-------------------------------|------------------------|
|--(7)------7---------7--7------|----------7---7-7-------|
|--(7)------7---------7--7----5-|----------7---7-7-------|
|------7h9--------9-----------3-|------7p9---9-------7h9-|
|-------------------------------|---8--------------------|


  Gtr III
    W                      W             H     Q   E  E
|----------------------|-------------|-----------------------|
|----------------------|-------------|---------------17b19===|
|----------------------|-------------|-----------------------|
|----------------------|-------------|-----------------------|
|----------------------|-------------|-----------------------|
|----------------------|-------------|-----------------------|
|
| Gtr II
|  +W                     +W            +W
|-(15)-----------------|-(15)--------|-(15)------------------|
|-(15)-----------------|-(15)--------|-(15)------------------|
|----------------------|-------------|-----------------------|
|----------------------|-------------|-----------------------|
|----------------------|-------------|-----------------------|
|----------------------|-------------|-----------------------|
|
| Gtr I
|   E  S S E E E E E E    +W            +H     H
|----------------------|-------------|-----------------------|
|----------------------|-------------|-----------------------|
|----------7---7-7-----|-------------|-----------------------|
|----------7---7-7---5-|--(5)--------|--(5)----5\------------|
|------7h9---9-------3-|--(3)--------|--(3)----3\------------|
|----------------------|-------------|-----------------------|


           |---3---|             |---3---|             |---3---|
   +E      S  S    S  S  S  E    S  S    S  S  S  E    S  S    S
|---------14------------14------14------------14------14---------|
|-(17)r------17p==14-14----17------17p==14-14----17------17p==14-|
|----------------------------------------------------------------|
|----------------------------------------------------------------|
|----------------------------------------------------------------|
|----------------------------------------------------------------|
|
|   Q                 Q          Q                Q
|----------------------------------------------------------------|
|----------------------------------------------------------------|
|---------------------2----------4----------------1--------------|
|---------------------2----------4----------------1--------------|
|----------------------------------------------------------------|
|----------------------------------------------------------------|
|
|   S   S  S    S     S  S  S S  S    S     S  S  S S  S    S
|----------------------------------------------------------------|
|----------------------------------------------------------------|
|----------------------------------------------------------------|
|----------------------------------------------------------------|
|----------------------------------------------------------------|
|---2---2--2----2-----2-----2-2--2----------2--2--2----2----2----|


   S  S  E    Q            +E      S  S  S  S  S  S
|----14-17---19b21========(19)r---14-16-14----14----|
|-14---------------------------------------17----17-|
|---------------------------------------------------|
|---------------------------------------------------|
|---------------------------------------------------|
|---------------------------------------------------|
|
|  Q          Q             Q            Q
|---------------------------------------------------|
|---------------------------------------------------|
|-------------2-------------4------------1----------|
|-------------2-------------4------------1----------|
|---------------------------------------------------|
|---------------------------------------------------|
|
|  S  S  S S  S     S S S   S   S  S  S  S  S  S  S
|---------------------------------------------------|
|---------------------------------------------------|
|---------------------------------------------------|
|---------------------------------------------------|
|---------------------------------------------------|
|--2--2--2-2--2-------2-2---2------2--2--2-----2--2-|


   S  S  S  S  S  S  S  S  S  S  S  S  S  S  S  S
|-------------------------------------------------|
|-14----14----------17-14----14-------------------|
|----17----17-16-14-------17----17-16-14----16----|
|----------------------------------------16----16-|
|-------------------------------------------------|
|-------------------------------------------------|
|
|  Q           Q           Q           Q
|-------------------------------------------------|
|-------------------------------------------------|
|--------------2-----------4-----------1----------|
|--------------2-----------4-----------1----------|
|-------------------------------------------------|
|-------------------------------------------------|
|
|  S  S  S  S  S  S  S  S  S  S  S  S  S  S  S  S
|-------------------------------------------------|
|-------------------------------------------------|
|-------------------------------------------------|
|-------------------------------------------------|
|-------------------------------------------------|
|--2--2--2--2--2-----2--2--2-----2--2--2-----2--2-|


   ~~
   W
|--------------------------------|
|--------------------------------|
|-14-----------------------------|
|--------------------------------|
|--------------------------------|
|--------------------------------|
|
|  Q       Q       Q       E   E
|--------------------------------|
|--------------------------------|
|--2-------4-------2-----------2-|
|--2-------4-------2-----------2-|
|--------------------------------|
|--------------------------------|
|
|  S S S S S S S S S S S S S S E
|--------------------------------|
|--------------------------------|
|--------------------------------|
|--------------------------------|
|------------------------------7-|
|--2---2-2-2---2-2-2---2-2-2---5-|


   T   T  T  T  T  T  T  T  T  T  T  T  T  T  T  T  T  T  T  T  T  T  T  T  T  T  T  T  T  T  T  T
|-12h=16p12h16p12h16p12h16p12h16p12h16p12h16p12h16p14h17p14h17p14h17p14h17p14h17p14h17p14h17p14h17-|
|--------------------------------------------------------------------------------------------------|
|--------------------------------------------------------------------------------------------------|
|--------------------------------------------------------------------------------------------------|
|--------------------------------------------------------------------------------------------------|
|--------------------------------------------------------------------------------------------------|
|
| +Q                        Q                       Q                       Q
|--------------------------------------------------------------------------------------------------|
|--------------------------------------------------------------------------------------------------|
|-(2)-----------------------2-----------------------4-----------------------1----------------------|
|-(2)-----------------------2-----------------------4-----------------------1----------------------|
|--------------------------------------------------------------------------------------------------|
|--------------------------------------------------------------------------------------------------|
|
| +E            S     S     S     S     S     S     S     S     S     S     S     S     S     S
|--------------------------------------------------------------------------------------------------|
|--------------------------------------------------------------------------------------------------|
|--------------------------------------------------------------------------------------------------|
|--------------------------------------------------------------------------------------------------|
|-(7)----------------------------------------------------------------------------------------------|
|-(5)-----------5-----5-----5-----------5-----5-----5-----------5-----5-----5-----------5-----5----|


                                                               |---3---|  |---3---|
   T  T  T  T  T  T  T  T  T  T  T  T  T  T  T  T  S  S  S  S  S  S    S  S  S    S
|-19p16h19p16h19p16h19p16h19p16h19p16h19p16h19p16-17-16-14-------17---16-17---------|
|----------------------------------------------------------17-14------------17---14-|
|-----------------------------------------------------------------------------------|
|-----------------------------------------------------------------------------------|
|-----------------------------------------------------------------------------------|
|-----------------------------------------------------------------------------------|
|
|  Q                       Q                       Q           Q
|-----------------------------------------------------------------------------------|
|-----------------------------------------------------------------------------------|
|--2-----------------------2-----------------------4-----------1--------------------|
|--2-----------------------2-----------------------4-----------1--------------------|
|-----------------------------------------------------------------------------------|
|-----------------------------------------------------------------------------------|
|
|  S     S     S     S     S     S     S     S     S  S  S  S  S    S     S    S
|-----------------------------------------------------------------------------------|
|-----------------------------------------------------------------------------------|
|-----------------------------------------------------------------------------------|
|-----------------------------------------------------------------------------------|
|-----------------------------------------------------------------------------------|
|--5-----------5-----5-----5-----------5-----5-----5-----5--5--5----------5----5----|


   S  S  S  S  S  S  S  S  T  T  T  T  T  T  T  T  T  T  T  T  T  T  T  T
|-------------------------------------------------------------------------|
|-14----------------------------------------------------------------------|
|----16-14----14----------------------------------------------------------|
|----------16----16-14----------------------------14h16p14h16p14h16p14h16-|
|----------------------16-14h16p14h16p14h16p14h16-------------------------|
|-------------------------------------------------------------------------|
|
|  Q           Q           Q                       Q
|-------------------------------------------------------------------------|
|-------------------------------------------------------------------------|
|--2-----------2-----------4-----------------------1----------------------|
|--2-----------2-----------4-----------------------1----------------------|
|-------------------------------------------------------------------------|
|-------------------------------------------------------------------------|
|
|  S  S  S  S  S  S  S  S  S     S     S     S     S     S     S     S
|-------------------------------------------------------------------------|
|-------------------------------------------------------------------------|
|-------------------------------------------------------------------------|
|-------------------------------------------------------------------------|
|-------------------------------------------------------------------------|
|--5-----5--5--5-----5--5--5-----------5-----5-----5-----------5-----5----|


   T  T  T  T  T  T  T  T  T  T  T  T  T  T  T  T  T  T  T  T  T  T  T  T  T  T  T  T  T  T  T  T
|-------------------------------------------------------------------------------------------------|
|-------------------------------------------------------------------------------------------------|
|-------------------------------------------------14h16p14h16p14h16p14h16-16h18p16h18p16h18p16h18-|
|-------------------------14h16p14h16p14h16p14h16-------------------------------------------------|
|-14h16p14h16p14h16p14h16-------------------------------------------------------------------------|
|-------------------------------------------------------------------------------------------------|
|
|  Q                       Q                       Q                       Q
|-------------------------------------------------------------------------------------------------|
|-------------------------------------------------------------------------------------------------|
|--2-----------------------4-----------------------2----------------------------------------------|
|--2-----------------------4-----------------------2----------------------------------------------|
|-------------------------------------------------------------------------------------------------|
|-------------------------------------------------------------------------------------------------|
|
|  S     S     S     S     S     S     S     S     E           E           E           E
|-------------------------------------------------------------------------------------------------|
|-------------------------------------------------------------------------------------------------|
|-------------------------------------------------------------------------------------------------|
|-------------------------------------------------------------------------------------------------|
|-------------------------------------------------------------------------------------------------|
|--5-----------5-----5-----5-----------5-----5-----5-----------4-----------3-----------2----------|


   H                   +E     +E     +Q
|-19b21r==============(19)---(19)---(19)-------|
|----------------------------------------------|
|----------------------------------------------|
|----------------------------------------------|
|----------------------------------------------|
|----------------------------------------------|
|
|  Q          Q         Q             Q
|----------------------------------------------|
|----------------------------------------------|
|-------------2---------4-------------1--------|
|-------------2---------4-------------1--------|
|----------------------------------------------|
|----------------------------------------------|
|
| +S    S S S S S S S   S  S   S  S   S  S S S
|----------------------------------------------|
|----------------------------------------------|
|----------------------------------------------|
|----------------------------------------------|
|----------------------------------------------|
|-(2)-----2-2-2---2-2---2------2--2---2----2-2-|

[ Tab from: http://www.guitartabs.cc/tabs/w/whitesnake/bad_boys_tab.html ]
   H.                        +E     E
|-19------------------------(19)---16---|
|---------------------------------------|
|---------------------------------------|
|---------------------------------------|
|---------------------------------------|
|---------------------------------------|
|
|  Q        Q       Q         Q
|---------------------------------------|
|---------------------------------------|
|--2--------2-------4---------1---------|
|--2--------2-------4---------1---------|
|---------------------------------------|
|---------------------------------------|
|
|  S  S S S S S S S S S S S   S  S  S S
|---------------------------------------|
|---------------------------------------|
|---------------------------------------|
|---------------------------------------|
|---------------------------------------|
|--2----2-2-2---2-2-2---2-2---2-----2-2-|


   S  S  S  S  S  S  S  S  S  S  S  S  S  S  S  S
|-19-17-16-------16-21-16-17-16-------------19----|
|----------19-18----------------19-17-16-19----19-|
|-------------------------------------------------|
|-------------------------------------------------|
|-------------------------------------------------|
|-------------------------------------------------|
|
|  Q           Q           Q           Q
|-------------------------------------------------|
|-------------------------------------------------|
|--2-----------2-----------4-----------1----------|
|--2-----------2-----------4-----------1----------|
|-------------------------------------------------|
|-------------------------------------------------|
|
|  S  S  S  S  S  S  S  S  S  S  S  S  S  S  S  S
|-------------------------------------------------|
|-------------------------------------------------|
|-------------------------------------------------|
|-------------------------------------------------|
|-------------------------------------------------|
|--2-----2--2--2-----2--2--2-----2--2--2-----2--2-|


   S  S  S  S  S  E.         +Q.             E
|-16-------------17b19======(17)r--------------|
|----19-17-16-------------------------------14-|
|-------------18-------------------------------|
|----------------------------------------------|
|----------------------------------------------|
|----------------------------------------------|
|
|  Q           Q              Q         E    E
|----------------------------------------------|
|----------------------------------------------|
|--2-----------4--------------2--------------2-|
|--2-----------4--------------2--------------2-|
|----------------------------------------------|
|----------------------------------------------|
|
|  S  S  S  S  S  S     S S   S   S S S S S  E
|----------------------------------------------|
|----------------------------------------------|
|----------------------------------------------|
|----------------------------------------------|
|--------------------------------------------7-|
|--2-----2--2--2--------2-2---2-----2-2-2----5-|


   S   S  S  S  S  S  S  S  S  S  S      +S    S  S  S  S
|---------------------------------------------------------|
|-----14-------------19-----------------------14-17-14----|
|-17-----17-16-14s16----18-16-14-16b18==(16)r----------16-|
|---------------------------------------------------------|
|---------------------------------------------------------|
|---------------------------------------------------------|
|
| +Q            Q           Q                  Q
|---------------------------------------------------------|
|---------------------------------------------------------|
|-(2)-----------2-----------4------------------1----------|
|-(2)-----------2-----------4------------------1----------|
|---------------------------------------------------------|
|---------------------------------------------------------|
|
| +E      S  S  S  S  S  S  S  S  S       S    S  S  S  S
|---------------------------------------------------------|
|---------------------------------------------------------|
|---------------------------------------------------------|
|---------------------------------------------------------|
|-(7)-----------------------------------------------------|
|-(5)-----5--5--5-----5--5--5-----5-------5----5-----5--5-|


                           |----3----|    |----3----|
   S  S  S  S  S  S  S  S  E    E    E    E    E    E
|----------------------------------------16h==17h==19---|
|-14----14-17-14-17-14--------------17------------------|
|----16----------------16-16---18-----------------------|
|-------------------------------------------------------|
|-------------------------------------------------------|
|-------------------------------------------------------|
|
|  Q           Q           Q              Q
|-------------------------------------------------------|
|-------------------------------------------------------|
|--2-----------2-----------4--------------1-------------|
|--2-----------2-----------4--------------1-------------|
|-------------------------------------------------------|
|-------------------------------------------------------|
|
|  S  S  S  S  S  S  S  S  S S    S    S  S S    S    S
|-------------------------------------------------------|
|-------------------------------------------------------|
|-------------------------------------------------------|
|-------------------------------------------------------|
|-------------------------------------------------------|
|--5-----5--5--5-----5--5--5------5----5--5------5----5-|


  Gtr IV
   W                                             H      Q  E E
|--------------------------------------------|-----------------|
|--------------------------------------------|-----------------|
|--------------------------------------------|-----------------|
|--------------------------------------------|-----------------|
|--------------------------------------------|---------------3-|
|--------------------------------------------|---------------1-|
|
| Gtr III
|  Q       +E    S  S  Q      +E   S     +S     +W
|-21b23===(21)r-19----22b24r=(22)-21b23r(21)-|-(21)------------|
|------------------19------------------------|-----------------|
|--------------------------------------------|-----------------|
|--------------------------------------------|-----------------|
|--------------------------------------------|-----------------|
|--------------------------------------------|-----------------|
|
| Gtr II
|  Q        Q          Q       Q                 Q   Q  Q  E E
|--------------------------------------------|-----------------|
|--------------------------------------------|-----------------|
|--2--------2----------4-------1-------------|---2---4--2------|
|--2--------2----------4-------1-------------|---2---4--2----7-|
|--------------------------------------------|-----------------|
|--------------------------------------------|-----------------|


   +H.          +E  E   +H.          +E  E
|---------------------|--------------------|
|---------------------|--------------------|
|---------------------|--------------------|
|---------------------|--------------------|
|--(3)----------(3)-3-|-(3)----------(3)-5-|
|--(1)----------(1)-1-|-(1)----------(1)-3-|
|
|  +W                    W
|-(21)----------------|--------------------|
|---------------------|--------------------|
|---------------------|--------------------|
|---------------------|--------------------|
|---------------------|--------------------|
|---------------------|--------------------|
|
|  +Q   E E E E  E  E   +Q   E E E E  E  E
|---------------------|--------------------|
|---------------------|--------------------|
|-------5---4---------|------5---4---------|
|--(7)----7---5-----7-|-(7)----7---5-----7-|
|----------------7----|---------------7----|
|---------------------|--------------------|


  +W                 +H.           +E  E
|------------------|---------------------|
|------------------|---------------------|
|------------------|---------------------|
|------------------|---------------------|
|-(5)--------------|-(5)-----------(5)-3-|
|-(3)--------------|-(3)-----------(3)-1-|
|
|  W                  W
|------------------|---------------------|
|------------------|---------------------|
|------------------|---------------------|
|------------------|---------------------|
|------------------|---------------------|
|------------------|---------------------|
|
| +Q   E E E E E E    E  E E E E E  E  E
|------------------|---------------------|
|----------6---8---|--6----8-------------|
|------5-----5---5-|-----5---5-4---------|
|-(7)----7---------|-------------5-----7-|
|------------------|----------------7----|
|------------------|---------------------|


  +H.          +E  E   +H.          +E  E
|--------------------|--------------------|
|--------------------|--------------------|
|--------------------|--------------------|
|--------------------|--------------------|
|-(3)----------(3)-3-|-(3)----------(3)-5-|
|-(1)----------(1)-1-|-(1)----------(1)-3-|
|
| Gtr II
| +Q   E E E E  E  E   +Q   E E E E  E  E
|--------------------|--------------------|
|--------------------|--------------------|
|------5---4---------|------5---4-------7-|
|-(7)----7---5-----7-|-(7)----7---5-------|
|---------------7----|---------------7----|
|--------------------|--------------------|
|
| Gtr I
| +Q   E E E E  E  E   +Q   E E E E  E  E
|--------------------|--------------------|
|------5-------------|------5-------------|
|-(5)----5-7-4-----5-|-(5)----5-7-4-------|
|---------------5----|---------------5----|
|--------------------|------------------5-|
|--------------------|------------------3-|


  Gtrs I, IV
  +E       E       E       E       E       E       E       E
|------------------------------------------------------------------|
|------------------------------------------------------------------|
|------------------------------------------------------------------|
|------------------------------------------------------------------|
|-(5)------5-------5-------5-------5-------5-------5-------5-------|
|-(3)------3-------3-------3-------3-------3-------3-------3-------|
|
|  T T T T T T T T T T T T T T T T T T T T T T T T T T T T T T T T
|------------------------------------------------------------------|
|------------------------------------------------------------------|
|--7p5h7p5h7p5h7p5h7p5h7p5h7p5h7p5h7p5h7p5h7p5h7p5h7p5h7p5h7p5h7p5-|
|------------------------------------------------------------------|
|------------------------------------------------------------------|
|------------------------------------------------------------------|


  Gtr II
   W                   +W
|-15b17=============|=(15)r----------|
|-------------------|----------------|
|-------------------|----------------|
|-------------------|----------------|
|-------------------|----------------|
|-------------------|----------------|
|
| Gtrs I,Gtr I
|  E     E +H.         +H      Q  Q
|-------------------|----------------|
|-------------------|----------------|
|-------------------|-------------7--|
|-------------------|----------7--5--|
|--5-----x-(x)------|--(x)-----5-----|
|--3----------------|----------------|


  Q   H         +E   E    +Q.     E  +Q.     E
|----------------------|-----------------------|
|-------------------13-|-(13)----12-(12)----10-|
|----12--------(12)-14-|-(14)----12-(12)----11-|
|----14--------(14)----|-----------------------|
|----------------------|-----------------------|
|----------------------|-----------------------|
|
| Q   Q  +E  E   E   E    +Q   E  E  +Q   E  E
|----------------------|-----------------------|
|----------------------|-----------------------|
|----------------------|---------------------7-|
|-----9--(9)-----------|----------5--(5)-----7-|
|-----7--(7)-0---2---3-|--(3)--3--3--(3)-------|
|-0--------------------|-----------------------|


   +Q       S  S  E  +Q.      E    +W
|----------10s12s10-(10)-----15-|-(15)-------------|
|-(10)-----10s12s10-(10)-----15-|-(15)-------------|
|-(11)--------------------------|------------------|
|-------------------------------|------------------|
|-------------------------------|------------------|
|-------------------------------|------------------|
|
|  +E  S S  E     E   E  E E  E    +E  E E E Q  Q
|-------------------------------|------------------|
|-------------------------------|------------------|
|--(7)------7---------7--7------|---------------7--|
|--(7)------7---------7--7----5-|--(5)-5-5-5-7--5--|
|------7h9--------9-----------3-|--(3)-3-3-3-5-----|
|-------------------------------|------------------|


  Q   H         +E   E    +Q.     E  +Q.     E
|----------------------|-----------------------|
|-------------------13-|-(13)----12-(12)----10-|
|----12--------(12)-14-|-(14)----12-(12)----11-|
|----14--------(14)----|-----------------------|
|----------------------|-----------------------|
|----------------------|-----------------------|
|
| Q   Q  +E  E   E   E    +Q   E  E  +Q   E  E
|----------------------|-----------------------|
|----------------------|-----------------------|
|----------------------|---------------------7-|
|-----9--(9)-----------|----------5--(5)-----7-|
|-----7--(7)-0---2---3-|--(3)--3--3--(3)-------|
|-0--------------------|-----------------------|


   +Q       S  S  E  +Q.      E
|----------10s12s10-(10)-----15-|
|-(10)-----10s12s10-(10)-----15-|
|-(11)--------------------------|
|-------------------------------|
|-------------------------------|
|-------------------------------|
|
|  +E  S S  E     E   E  E E  E
|-------------------------------|
|-------------------------------|
|--(7)------7---------7--7------|
|--(7)------7---------7--7----5-|
|------7h9--------9-----------3-|
|-------------------------------|


   +W                      +W
|-(15)------------------|-(15)-------------------|
|-(15)------------------|-(15)-------------------|
|-----------------------|------------------------|
|-----------------------|------------------------|
|-----------------------|------------------------|
|-----------------------|------------------------|
|
|   E  S S E E Q  E S S     E  S S E E +E  Q.
|-----------------------|------------------------|
|-----------------------|------------------------|
|----------7---7--------|---7--x-x-7-5-(5)-------|
|---5------7---7--------|---7--x-x-7-5-(5)-x-----|
|---3--7h9---9------7h9-|------------------------|
|-----------------------|------------------------|


   +W                           +W
|-(15)-----------------------|-(15)----------------|
|-(15)-----------------------|-(15)----------------|
|----------------------------|---------------------|
|----------------------------|---------------------|
|----------------------------|---------------------|
|----------------------------|---------------------|
|
|   S  S S S E E E S S S S E    +E  E E S S E Q.
|----------------------------|---------------------|
|----------------------------|---------------------|
|----------------------------|---------------------|
|------------7-7-7---------7-|--(7)-7-7-----7-9\---|
|------------5-4-5---------5-|--(5)-4-5-----5-7\---|
|---0--0-0-0-------0-0-0-0---|----------0-0--------|


   +W                +W
|-(15)------------|-(15)---------|
|-(15)------------|-(15)---------|
|-----------------|--------------|
|-----------------|--------------|
|-----------------|--------------|
|-----------------|--------------|
|
|   Q.   E +H        +H     H
|-----------------|--------------|
|-----------------|--------------|
|-----------------|--------------|
|---4----5-(5)----|--(5)---------|
|---3----3-(3)----|--(3)----x----|
|-----------------|--------------|


   +W                           +W
|-(15)-----------------------|-(15)----------------|
|-(15)-----------------------|-(15)----------------|
|----------------------------|---------------------|
|----------------------------|---------------------|
|----------------------------|---------------------|
|----------------------------|---------------------|
|
|   S  S S S E E E S S S S E    +E  E E S S E Q.
|----------------------------|---------------------|
|----------------------------|---------------------|
|----------------------------|---------------------|
|------------7-7-7---------7-|--(7)-7-7-----7-9\---|
|------------5-4-5---------5-|--(5)-4-5-----5-7\---|
|---0--0-0-0-------0-0-0-0---|----------0-0--------|


   +W
|-(15)-------------------------------|
|-(15)-------------------------------|
|------------------------------------|
|------------------------------------|
|------------------------------------|
|------------------------------------|
|
|   S  S S S S S S S S S S S S S S S
|------------------------------------|
|---0--------0-------0---------------|
|------2-0-----2-0-----2-0---4p0-4p0-|
|----------2-------2-------2---------|
|------------------------------------|
|------------------------------------|


   +W                           W                          W
|-(15)------------------------|-------------------------|-------------------|
|-(15)------------------------|-------------------------|-------------------|
|-----------------------------|-------------------------|-------------------|
|-----------------------------|-------------------------|-------------------|
|-----------------------------|-------------------------|-------------------|
|-----------------------------|-------------------------|-------------------|
|
|                          ~
|   S  S S S S S S S E +E  Q    S S S S E E E S S S S E   +E  E E S S E Q.
|-----------------------------|-------------------------|-------------------|
|-----------------------------|-------------------------|-------------------|
|--------4-0-4-0--------------|-------------------------|-------------------|
|---4--0---------4-0----------|---------7-7-7---------7-|-(7)-7-7-----7-9\--|
|-----------------------------|---------5-4-5---------5-|-(5)-4-5-----5-7\--|
|--------------------3-(3)-3--|-0-0-0-0-------0-0-0-0---|---------0-0-------|


  Gtr I
  Q  E E +E  S S S S S S   S S E S S E +E  E +Q     S S S S E E E S S S S E
|------------------------|------------------------|-------------------------|
|------------------------|------------------------|-------------------------|
|------------------------|-----7-----7-(7)-7-(7)--|-------------------------|
|------------------------|-----7-----7-(7)-7-(7)--|---------7-7-7---------7-|
|-7----7-(7)-------------|------------------------|---------5-4-5---------5-|
|-5----5-(5)-5-5-7-7-8-8-|-8-8---8-8--------------|-0-0-0-0-------0-0-0-0---|


  +E  E E S S E Q.     Q  E E +E  S S S S S S   S S E S S E +E  E +Q
|--------------------|------------------------|------------------------|
|--------------------|------------------------|------------------------|
|--------------------|------------------------|-----7-----7-(7)-7-(7)--|
|-(7)-7-7-----7-9\---|------------------------|-----7-----7-(7)-7-(7)--|
|-(5)-4-5-----5-7\---|-7----7-(7)-------------|------------------------|
|---------0-0--------|-5----5-(5)-5-5-7-7-8-8-|-8-8---8-8--------------|


  S S S S S S S S S S S S S S S S   S S S S S S S S S S E S S S S
|---------------------------------|-------------------------------|
|---------------------------------|-------------------------------|
|-------------1-1-2-2-1-1---------|-------------1-1-2-2-4---------|
|-----1-1-4-4-------------4-4-1-1-|-----1-1-4-4---------4-4-4-1-1-|
|-2-2-----------------------------|-2-2---------------------------|
|---------------------------------|-------------------------------|


  S S E S S S S S S E S S E   Q  Q  S S E E E
|---------------------------|-----------------|
|---------------------------|-----------------|
|-----2-------------2-----2-|-2--2------------|
|-----2-------------2-----2-|-2--2------------|
|-0-0---0-0-0-0-0-0---0-0---|-0--0--2p0---0-1-|
|---------------------------|-----------4-----|


                                                                |-3-| |-3-|
  S S S S S S S S S S S S S S S S   S S S S S S S S S S E E E   Q Q Q Q Q Q
|---------------------------------|---------------------------|-------------|
|---------------------------------|---------------------------|-------------|
|-------------1-1-2-2-1-1---------|-------------1-1-4s6s4---4-|-------------|
|-----1-1-4-4-------------4-4-1-1-|-----1-1-4-4-----4s6s4-6-4-|-2-4-2-4-2-4-|
|-2-2-----------------------------|-2-2-------------------6---|-2-4-2-4-2-4-|
|---------------------------------|---------------------------|-------------|


  Gtr II
  W              Q   H         +E   E
|--------------|----------------------|
|--------------|-------------------13-|
|--------------|----12--------(12)-14-|
|--------------|----14--------(14)----|
|--------------|----------------------|
|--------------|----------------------|
|
| Gtr I
| E E Q  Q  Q    Q   Q  +E  E   E   E
|--------------|----------------------|
|--------------|----------------------|
|-----------7--|----------------------|
|-2-2-2--7--5--|-----9--(9)-----------|
|-2-2-2--5-----|-----7--(7)-0---2---3-|
|--------------|-0--------------------|


   +Q.     E  +Q.     E    +Q       S  S  E  +Q.      E
|-----------------------|----------10s12s10-(10)-----15-|
|-(13)----12-(12)----10-|-(10)-----10s12s10-(10)-----15-|
|-(14)----12-(12)----11-|-(11)--------------------------|
|-----------------------|-------------------------------|
|-----------------------|-------------------------------|
|-----------------------|-------------------------------|
|
|  +Q   E  E  +Q   E  E    +E  S S  E     E   E  E E  E
|-----------------------|-------------------------------|
|-----------------------|-------------------------------|
|---------------------7-|--(7)------7---------7--7------|
|----------5--(5)-----7-|--(7)------7---------7--7----5-|
|--(3)--3--3--(3)-------|------7h9--------9-----------3-|
|-----------------------|-------------------------------|


   +W                Q   H         +E   E
|-(15)-------------|----------------------|
|-(15)-------------|-------------------13-|
|------------------|----12--------(12)-14-|
|------------------|----14--------(14)----|
|------------------|----------------------|
|------------------|----------------------|
|
|  +E  E E E Q  Q    Q   Q  +E  E   E   E
|------------------|----------------------|
|------------------|----------------------|
|---------------7--|----------------------|
|--(5)-5-5-5-7--5--|-----9--(9)-----------|
|--(3)-3-3-3-5-----|-----7--(7)-0---2---3-|
|------------------|-0--------------------|


   +Q.     E  +Q.     E    +Q       S  S  E  +Q.      E
|-----------------------|----------10s12s10-(10)-----15-|
|-(13)----12-(12)----10-|-(10)-----10s12s10-(10)-----15-|
|-(14)----12-(12)----11-|-(11)--------------------------|
|-----------------------|-------------------------------|
|-----------------------|-------------------------------|
|-----------------------|-------------------------------|
|
|  +Q   E  E  +Q   E  E    +E  S S  E     E   E  E E  E
|-----------------------|-------------------------------|
|-----------------------|-------------------------------|
|---------------------7-|--(7)------7---------7--7------|
|----------5--(5)-----7-|--(7)------7---------7--7----5-|
|--(3)--3--3--(3)-------|------7h9--------9-----------3-|
|-----------------------|-------------------------------|


   +W                Q   H         +E   E
|-(15)-------------|----------------------|
|-(15)-------------|-------------------13-|
|------------------|----12--------(12)-14-|
|------------------|----14--------(14)----|
|------------------|----------------------|
|------------------|----------------------|
|
|  +E  E E E Q  Q    Q   Q  +E  E   E   E
|------------------|----------------------|
|------------------|----------------------|
|---------------7--|----------------------|
|--(5)-5-5-5-7--5--|-----9--(9)-----------|
|--(3)-3-3-3-5-----|-----7--(7)-0---2---3-|
|------------------|-0--------------------|


   +Q.     E  +Q.     E    +Q       S  S  E  +Q.      E
|-----------------------|----------10s12s10-(10)-----15-|
|-(13)----12-(12)----10-|-(10)-----10s12s10-(10)-----15-|
|-(14)----12-(12)----11-|-(11)--------------------------|
|-----------------------|-------------------------------|
|-----------------------|-------------------------------|
|-----------------------|-------------------------------|
|
|  +Q   E  E  +Q   E  E    +E  S S  E     E   E  E E  E
|-----------------------|-------------------------------|
|-----------------------|-------------------------------|
|---------------------7-|--(7)------7---------7--7------|
|----------5--(5)-----7-|--(7)------7---------7--7----5-|
|--(3)--3--3--(3)-------|------7h9--------9-----------3-|
|-----------------------|-------------------------------|


   +W                Q   H         +E   E
|-(15)-------------|----------------------|
|-(15)-------------|-------------------13-|
|------------------|----12--------(12)-14-|
|------------------|----14--------(14)----|
|------------------|----------------------|
|------------------|----------------------|
|
|  +E  E E E Q  Q    Q   Q  +E  E   E   E
|------------------|----------------------|
|------------------|----------------------|
|---------------7--|----------------------|
|--(5)-5-5-5-7--5--|-----9--(9)-----------|
|--(3)-3-3-3-5-----|-----7--(7)-0---2---3-|
|------------------|-0--------------------|


   +Q.     E  +Q.     E    +Q       S  S  E  +Q.      E
|-----------------------|----------10s12s10-(10)-----15-|
|-(13)----12-(12)----10-|-(10)-----10s12s10-(10)-----15-|
|-(14)----12-(12)----11-|-(11)--------------------------|
|-----------------------|-------------------------------|
|-----------------------|-------------------------------|
|-----------------------|-------------------------------|
|
|  +Q   E  E  +Q   E  E    +E  S S  E     E   E  E E  E
|-----------------------|-------------------------------|
|-----------------------|-------------------------------|
|---------------------7-|--(7)------7---------7--7------|
|----------5--(5)-----7-|--(7)------7---------7--7------|
|--(3)--3--3--(3)-------|------7h9--------9-----------0-|
|-----------------------|-------------------------------|


   +H       Q       Q           S  E.         +H.
|-(15)---------------------||-----21b23======(21)-------------------|
|-(15)-----20b22---20b22---||o-20-----------------------------------|
|--------------------------||---------------------------------------|
|--------------------------||---------------------------------------|
|--------------------------||o--------------------------------------|
|--------------------------||---------------------------------------|
|
|  +Q.   E  E    E  E    E      S  S     S S   E  S S S S E S S S S
|--------------------------||---------------------------------------|
|--------------------------||o--------------------------------------|
|--------------------------||---------------------------------------|
|--------------------------||------------------9----------9---------|
|--(0)---3--2----0---------||o-----------------7----------7---------|
|-------------------3----2-||---0--0-----0-0------0-0-0-0---8-8-8-8-|


   +W
|-(21)-----------------------|
|----------------------------|
|----------------------------|
|----------------------------|
|----------------------------|
|----------------------------|
|
|   E  S S S S  E  +Q   E E
|----------------------------|
|----------------------------|
|-------------------------7--|
|--10----------10-(10)----7--|
|--10----------10-(10)-------|
|------8-8-8-8----------0----|


   +W                       +W                          4x
|-(21)-------------------|-(21)r------------------------||
|------------------------|-----------------------------o||
|------------------------|------------------------------||
|------------------------|------------------------------||
|------------------------|-----------------------------o||
|------------------------|------------------------------||
|
|  +E  S S E E E E +E  E    +Q.    S S S S S S S S S S  4x
|------------------------|------------------------------||
|------------------------|-----------------------------o||
|--(7)-----7---7---------|------------------------------||
|--(7)-----7-9-7-9-(9)-2-|--(2)-------------------------||
|------7h9---9---9-(9)-0-|--(0)----3-3-2-2-0-0---------o||
|------------------------|---------------------3-3-2-2--||


Duration Legend
---------------
W - whole; H - half; Q - quarter; E - 8th; S - 16th; T - 32nd; X - 64th; a - acciaccatura
+ - note tied to previous; . - note dotted; .. - note double dotted
Uncapitalized letters represent notes that are staccato (1/2 duration)
Irregular groupings are notated above the duration line
Duration letters will always appear directly above the note/fret number it represents the
duration for.  Duration letters with no fret number below them represent rests.  Multi-
bar rests are notated in the form Wxn, where n is the number of bars to rest for.  Low
melody durations appear below the staff

Tablature Legend
----------------
 h   - hammer-on
 p   - pull-off
 b   - bend
 pb  - pre-bend
 r   - bend release (if no number after the r, then release immediately)
 /\  - slide into or out of (from/to "nowhere")
 s   - legato slide
 S   - shift slide
  - natural harmonic
[n]  - artificial harmonic
n(n) - tapped harmonic
 ~   - vibrato
 tr  - trill
 T   - tap
 TP  - trem. picking
 PM  - palm muting
\n/  - tremolo bar dip; n = amount to dip
 \n  - tremolo bar down
 n/  - tremolo bar up
/n\  - tremolo bar inverted dip
 =   - hold bend; also acts as connecting device for hammers/pulls
 <>  - volume swell (louder/softer)
 x   - on rhythm slash represents muted slash
 o   - on rhythm slash represents single note slash

Misc Legend
-----------
 |  - bar
||  - double bar
||o - repeat start
o|| - repeat end
*|  - double bar (ending)
 :  - bar (freetime)
 $  - Segno
 &  - Coda
Tempo markers -  = BPM(8/16=s8/s16), where s8 = swing 8ths, s16 = swing 16ths


***************************************************************************************
* Generated using Power Tab Editor by Brad Larsen - http://powertab.guitarnetwork.org *
***************************************************************************************
Comments