Whited Gregory - T R C Chords & Tabs

 

T R C Chords & Tabs

Whited Gregory Chords & Tabs

Version: 1 Type: Tab 0 ratings
1 star 2 stars 3 stars 4 stars 5 stars
comments

T R C Tab

This is a song I, Gregory Whited Wrote, it uses the standard tuning.
HOPE YOU ENJOY!!!!!!!!!!(ex. 0 1 0 means fret open to 1 and back to 
open not 10 multiple numbers are written 10 11 not 0 1 0 
[ Tab from: http://www.guitartabs.cc/tabs/w/whited_gregory/t_r_c_tab.html ]
e|--------------------------------------- 0 1 0---1----0-0---------------
 |---------------------------------------------1 0-----0-0----------------
 |-----------------------------------------------------0-0-----------------
 |-----------------------------------------------------0-0-----------------
 |------------3 0--------------1 0---------------------0-0-------1 0-----
E|3 3 3 0 3 0---- 3 1 1 1 0 1 0 --1 0 0 0------------1---  0 1 0-----1

(REPEAT 2X)


e|--0-0-----------------------------------------------------------------
 |--0-0-----------------------------------------------------------------
 |--0-0-----------------------------------------------------------------
 |--0-0-----------------------------------------------------------------
 |--0-0-------3 0 --------------------------------------------------
E|3 3 3-0 3 0 ----3-------------------------------------------------
Comments