Whitechapel - The Darkest Day Of Man Chords & Tabs

 

The Darkest Day Of Man Chords & Tabs

Whitechapel Chords & Tabs

Version: 1 Type: Bass Tab

The Darkest Day Of Man Bass Tab

Darkest Day of Man Bass tabs

...-sustain

\-slide

tuning drop A

By Ryan

no. on top are the timeline from the track...




  0:05-0:09
|---------------------------------|
|---------------------------------|
|-----------------------------1---|
|-1--0----1--0----4-4-3-3-1-1-----|


  0:10-0:19               x3
|--------------------------|
|--------------------------|
|--------------------------|
|-1--0----4-4-3-3-1-1-3-3--|



|-------------------------|
|-------------------------|
|---------------------1---|
|-1--0----4-4-3-3-1-1-----|

   

  0:19-0:28
|-------------------------|
|-------------------------|
|-------------------------|
|-1--0---/4---3---1---3---|



|-------------------------|
|-------------------------|
|-------------------1-----|
|-1--0---/4---3---1----4h-|


|-------------------------|
|-------------------------|
|-------------------------|
|-1--0---/4---3---1---3---|



|-------------------------|
|-------------------------|
|-------------------1-----|
|-1--0---/4---3---1---4h--|





   0:29-0:35
|------------------|
|------------------|
|------------------|
|-4444333311113333-|


|-------------------------|
|-------------------------|
|------------------1------|
|-1--0--44443333-1----4h--|
   

|-------------------------|
|-------------------------|
|-------------------------|
|-1--0--4444333311113333--|


|----------------------|
|----------------------|
|----------------------|
|-8--7--4--7--4--3--0..|




   
   0:44-1:07
|-------|-----------------|
|-------|-----------------|
|-------|-----------------|
|-1--0--|--8--7--4--7--3--|

                                                          x2
|-------------------------------------------------------------|
|-------------------------------------------------------------|
|-------------------------------------------------------------|
|0000000000000000-55555555555555544444444444-8--7--4--7--4--3-|
 


   1:07-1:30
|---------------------|
|---------------------|
|-----------------9\--|
|-1--0----4--3--------|

                                                          x2
|-------------------------------------------------------------|
|-------------------------------------------------------------|
|-------------------------------------------------------------|
|0000000000000000-55555555555555544444444444-8--7--4--7--4--3-|


      
[ Tab from: http://www.guitartabs.cc/tabs/w/whitechapel/the_darkest_day_of_man_btab.html ]
   1:32-1:41              x3
|-------------------------|
|-------------------------|
|-------------------------|
|-11--0-----11--0---11--0-|



|--------------------|
|--------------------|
|--------------------|
|-11--0-----11--0----|




   1:42-1:50           X3
|--------------------|
|--------------------|
|--------------------|
|-1--0--1--0---11--0-|


|------------|
|------------|
|------------|
|-1--0--1--0-|




  1:51-2:10
|----------------------------------------------|
|----------------------------------------------|
|----------------------------------------------|
|--3-0-3-3-0-3-0-3-3-0-3-0-3-3-0-3-0-3-4-3-0-3-|


|----------------------------------------------|
|----------------------------------------------|
|----------------------------------------------|
|--2-0-2-2-0-2-0-2-2-0-2-0-2-2-0-2-0-2-3-2-0-2-|


|----------------------------------------------|
|----------------------------------------------|
|----------------------------------------------|
|--3-0-3-3-0-3-0-3-3-0-3-0-3-3-0-3-0-3-4-3-0-3-|


|----------------------------------------------|
|----------------------------------------------|
|----------------------------------------------|
|--2-0-2-2-0-2-0-2-2-0-2-0-2-2-0-2-0-2-3-2-0-2-|


   2:10-2:28                                              X2
|-----------------------------------------------------------|
|-----------------------------------------------------------|
|-----------------------------------------------------------|
|-333333333355555555556666666668888888899999999111111111111-|

  
  2:29-2:47
|----------------------------------------------|
|----------------------------------------------|
|----------------------------------------------|
|--3-0-3-3-0-3-0-3-3-0-3-0-3-3-0-3-0-3-4-3-0-3-|


|----------------------------------------------|
|----------------------------------------------|
|----------------------------------------------|
|--2-0-2-2-0-2-0-2-2-0-2-0-2-2-0-2-0-2-3-2-0-2-|


|----------------------------------------------|
|----------------------------------------------|
|----------------------------------------------|
|--3-0-3-3-0-3-0-3-3-0-3-0-3-3-0-3-0-3-4-3-0-3-|


|----------------------------------------------|
|----------------------------------------------|
|----------------------------------------------|
|--2-0-2-2-0-2-0-2-2-0-2-0-2-2-0-3-2-0-2-3-0-1-|

 


     2:48-2:58            x3
|--------------------------|
|--------------------------|
|--------------------------|
|-1--0----4-4-3-3-1-1-3-3--|


|--------------------------------|
|--------------------------------|
|--------------------------------|
|-1--0----4-4-3-3-1-1-3-3--0-1-0-|