White Zombie - Thunderkiss 65 Chords & Tabs

 

Thunderkiss 65 Chords & Tabs

White Zombie Chords & Tabs

Version: 1 Type: Bass Tab 0 ratings
1 star 2 stars 3 stars 4 stars 5 stars
comments

Thunderkiss 65 Bass Tab

INTRO...(GUITAR STARTS)		 Verses 1&2:
G|-----------||------------|	 G|-------------------------------------|
D|-----------||------------|	 D|-------------------------------------|
A|2--1-------||-------2--1-|	 A|-----------------------------2---1---|
E|-3--2--0...||-6-0-6--3--2|	 E|0--0--00-00-0--00-00-0-00--0---3---2-|
[ Tab from: http://www.guitartabs.cc/tabs/w/white_zombie/thunderkiss_65_btab.html ]
1st & 2nd Chorus:
G|----------------------------|
D|----------------------------|X4
A|---7----5-6-7---7-----------|
E|-0---0--------0---0---5-0-3-|
 
Bridge 1:(Voiceover)			 Lead
G|-----------------------------||-------|	 G|----------------------------
D|-----------------------------||-------|	 D|----------5-7---------------
A|----3----6-5--3--------------||-------|	 A|---7--5-7--------8--8-6-----
E|-5----5---------3-55--3-3-4--||-2-1-0-|	 E|-0-------------0--------8-7-

3rd verse
G|-------------|-----------------------------------------------------------
D|--[3 times]--|-----------------------------------------------------------
A|-------------|-----------------------------------------------------------
E|-0-3---0-3-5-|-0-3-0--3-2-1----------------------------------------------

Bridge 2				         End
G|-------------------------------------	G|-----------|---------
D|-------------------------------------	D|-(4 times)-|---------
A|-------------------------------------	A|-----------|---------
E|-0-3-0-2-0-1-0-6-0-5-0-3-0-3-0-2-0-1-	E|-2-1-------|-1-2-...1

Comments