White Zombie - Starface Chords & Tabs

 

Starface Chords & Tabs

White Zombie Chords & Tabs

Version: 2 Type: Tab

Starface Tab

Band- White Zombie
Song- Starface

Played with very heavy fuzz.

(Starts with: "T-minus 5-4-3-2-1---------------------|)
|----------------------------------------------------|
|------------------------------------8---------------|
|--3-----------9--7------------------x---------------|
|--2-----------9--7---------7--------7---------------|
|--2-----------7--5---------7--------7---------------|
|--0------------------------5--------0---------------|

|----------------------------------------------|
|----------------------------------------------|
|--------------------9--7----------------------|
|---5--4--2----------9--7----------7-----------|
|---5--4--2----------7--5----------7-----------|
|---3--2--0------------------------5-----------|

|---------------------------------------------------------|
|---------------------------------------------------------|
|----12-12--12-12--12-12--12-12--12--12-------------------|
|----x--x---x--x---x--x---x--x---x---x--------------------|
|----10-10--10-10--10-10--10-10--10--10-------------------|
|---------------------------------------------------------|
[ Tab from: http://www.guitartabs.cc/tabs/w/white_zombie/starface_tab_ver_2.html ]
|-----------------------------------------------------------|
|-----------------------------------------------------2--0--|
|-----------------------------------------------------2--0--|
|----------3-0--------------------------3-0---0-3-0---2--0--|
|---------------2---0-----0-----------------2-------2-------|
|-0-0-0-0-------------3-0---3--0--0-0-----------------------|
 ^ all rapid ^
|-----------------------------------------------------------|
|-----------------------------------------------------2--0--|
|-----------------------------------------------------2--0--|
|----------3-0--------------------------3-0---0-3-0---2--0--|
|---------------2---0-----0-----------------2-------2-------|
|-0-0-0-0-------------3-0---3--0--0-0-----------------------|
 ^ all rapid ^
|-----------------------------------------------------------|
|-----------------------------------------------------------|
|-----------------------------------------------------------|
|-----------------------0h2---------------------------------|
|-----------------------------------------------------------|
|-0--0-0--4-0-5-0-7--0-------0--0-0--4-0-5-7--3~------------|

|---------------------------------------------------------------|
|---------------------------------------------------------------|
|----------------------0h2---14×3--12×3-----------------------|
|----------------------------------------14×3--12×3-----------|
|-0--0-0--4-0-5-0-7-0--------------------------------15-12------|
|---------------------------------------------------------------|