White Zombie - Soul Crusher Chords & Tabs

 

Soul Crusher Chords & Tabs

White Zombie Chords & Tabs

Version: 2 Type: Tab 0 ratings
1 star 2 stars 3 stars 4 stars 5 stars
comments

Soul Crusher Tab

                     Tabbed correctly by Matt Crampton    


e----------------------------------:---------------------------------------
b----------------------------------:---------------------------------------
g------7h8---8-------5-7-----------:----7h8---8-------5-7------------------
d--0-------0---8-7-0-------5-6-----:-0------0---8-7-0-------5-6------------
a------------------------0-----8---:----------------------0-----8----------
e----------------------------------:---------------------------------------
[ Tab from: http://www.guitartabs.cc/tabs/w/white_zombie/soul_crusher_tab_ver_2.html ]
e----------------------------------:---------------------------------------
b----------------------------------:---------------------------------------
g------7h8---8-------5-7-----------:----7h8---8-------5-7------------------
d--0-------0---8-7-0-------5-6-----:-0------0---8-7-0-------5-6-----8-8----
a------------------------0-----8---:----------------------0-----8---6-6----
e----------------------------------:---------------------------------------

e----------------------------------:---------------------------------------
b----------------------------------:---------------------------------------
g-----------9--------9--------9----:---8---------8---------8---------------
d-----------7--------7--------7----:--10--------10--------10---8-8---------
a-----0000-----0000-----0000-------:------0000------0000-------6-6---------
e----------------------------------:---------------------------------------
Comments