White Zombie - More Guman Than Human Chords & Tabs

 

More Guman Than Human Chords & Tabs

White Zombie Chords & Tabs

Version: 1 Type: Tab 0 ratings
1 star 2 stars 3 stars 4 stars 5 stars
comments

More Guman Than Human Tab

   
The guitar inthe song sounds fairly good when alot lower than D so i found that C#
would sound almost perfect. Use a slide for all sliding or else it will never be
perfect

Tuning:   Key:
6=C#      /-slide up
5=F#      \-slide down
4=B       v-vibrato
3=E       (4)-let ring
2=G#      Pm<--->-Palm Mute
1=C#

Intro: Synth. Effects with Riff 1

Riff 1:

B |-2-2------------------2-2-|
F#|-2-2------------------2-2-|
C#|-0-0------------------0-0-|

Riff 2
  A steady gradual slide at first but when the notes are close use speed
C#|----3//////////12v----(12)\\\4///////14v---(14)\\\4///////15v---|
G#|----3//////////12v----(12)\\\4///////14v---(14)\\\4///////15v---|
E |----3//////////12v----(12)\\\4///////14v---(14)\\\4///////15v---|
B |----------------------------------------------------------------|
F#|----------------------------------------------------------------|
C#|----------------------------------------------------------------|
C#|--(15)////////17--17-17-17\\\\3---------------------------------|
G#|--(15)////////17-----17-17\\\\3---------------------------------|
E |--(15)////////17--------17\\\\3---------------------------------|
B |----------------------------------------------------------------|
F#|----------------------------------------------------------------|
C#|----------------------------------------------------------------|

Riff 3

C#|--3/////////12v--(12)\\\4////////14v--(14)\\\4/////////15v--(15)\\\\\-----------------------------------|
G#|--3/////////12v--(12)\\\4////////14v--(14)\\\4/////////15v--(15)\\\\\--------17\\\-17-(17)\\\\17\\\\\12-|
E |--3/////////12v--(12)\\\4////////14v--(14)\\\4/////////15v--(15)\\\\\13//17--17\\\-17-(17)\\\\17\\\\\12-|
B |---------------------------------------------------------------------13//17-----------------------------|
F#|--------------------------------------------------------------------------------------------------------|
C#|--------------------------------------------------------------------------------------------------------|
                                                                                      
slide over fret board
C#|--(12)\\\\4/////////14v--(14)\\\\4////////15v---(15)\\\\5////////17---17--------3/////////////24\\\\\x--|
G#|--(12)\\\\4/////////14v--(14)\\\\4////////15v---(15)\\\\5////////17-------17\\\\3/////////////24\\\\\x--|
E |--(12)\\\\4/////////14v--(14)\\\\4////////15v---(15)\\\\5////////17-------17\\\\3/////////////24\\\\\x--|
B |--------------------------------------------------------------------------------------------------------|
F#|--------------------------------------------------------------------------------------------------------|
C#|--------------------------------------------------------------------------------------------------------|

reapet Riff 1

Riff 4:

B |--2-2-2222-2-2-2222-2-2-2222-2-2----|
F#|--2-2-2222-2-2-2222-2-2-2222-2-2----|
C#|--0-0-0000-0-0-0000-0-0-0000-0-0----|
      PM <--> Pm  <-->  Pm <-----------|

Riff 2

Riff 3

Riff 1

Riff 4

Outro:
[ Tab from: http://www.guitartabs.cc/tabs/w/white_zombie/more_guman_than_human_tab.html ]
C#|-------5/////-------7//////-------9//////-------11//////-------9//////------17/////-----|
G#|-------5/////-------7//////-------9//////-------11//////-------9//////------17/////-----|
E |-------5/////-------7//////-------9//////-------11//////-------9//////------17/////-----|
B |--2-2----------2-2-----------2-2------------2-2-----------2-2-----------2-2-------------|
F#|--2-2----------2-2-----------2-2------------2-2-----------2-2-----------2-2-------------|
C#|--0-0----------0-0-----------0-0------------0-0-----------0-0-----------0-0-------------|

C#|-------18/////-----20//////--------repeat-------18/////-------20/////-----5/////-----6////--|
G#|-------18/////-----20//////--------      -------18/////-------20/////-----5/////-----6////--|
E |-------18/////-----20//////--------      -------18/////-------20/////-----5/////-----6////--|
B |--2-2----------2-2-----------------      --2-2------------2-2----------2-2-------2-2--------|
F#|--2-2----------2-2-----------------      --2-2------------2-2----------2-2-------2-2--------|
C#|--0-0----------0-0-----------------      --0-0------------0-0----------0-0-------0-0--------|

C#|-------9/////-------11///////------14//////------15//////------18//////-------16//////------|
G#|-------9/////-------11///////------14//////------15//////------18//////-------16//////------|
E |-------9/////-------11///////------14//////------15//////------18//////-------16//////------|
B |--2-2----------2-2-------------2-2-----------2-2-----------2-2------------2-2---------------|
F#|--2-2----------2-2-------------2-2-----------2-2-----------2-2------------2-2---------------|
C#|--0-0----------0-0-------------0-0-----------0-0-----------0-0------------0-0---------------|

C#|----4\\\\\\----------------------------------------------5\\\\\\\-------8\\\\\\------11\\\\\\----14\\\\\|
G#|----4\\\\\\------------------4\\\\\\--------4\\\\\\------5\\\\\\\-------8\\\\\\\-----11\\\\\\----14\\\\\|
E |----4\\\\\\-----4\\\\\\------4\\\\\\--------4\\\\\\------5\\\\\\\-------8\\\\\\\-----11\\\\\\\---14\\\\\|
B |2-2---------2-2-4\\\\\\\-2-2-4\\\\\\\--2-2--4\\\\\\\-2-2-----------2-2-----------2-2----------2-2-------|
F#|2-2---------2-2----------2-2-----------2-2-----------2-2-----------2-2-----------2-2----------2-2-------|
C#|0-0---------0-0----------0-0-----------0-0-----------0-0-----------0-0-----------0-0----------0-0-------|
    If you find this riff a little impossible you'd be right because its two guitars so
thought I'd include it so people
    who are fortunate to play eith more than one can play this and it sounds real good.

 End with Riff 1 and the Synth. Effects.


Lyrics:

Verse 1
I am the Astro Creep a Demolitian Style Hell American Freak Yeah
I am the Crawling Dead a phantom in the box shadow in your head Say
Acid Suicide freedom of the blast read the Fucking lies Yeah
Scratch off the Broken Skin Tear into my Heart make me do it again

Chorus
More Human Than Human

Verse 2
I am Jigsaw Man I turned the wolrd around with a skeleton hand Say
I am Eletric Head A cannibal core a television said Yeah
Do not Victimize Read the Motherfucking Pchyoholic Lies Yeah
Into a psychic war I tear my soul apart and eat it some more Yeah

Chorus

Verse 3
I am the Ripper man A locomotive mind, love American Style Yeah
I am the Nexus one I want more life Fucker I ain't done yet Yeah

Chorus

That is it one of White zombie's best songs entirely wriiten so get learning!
Comments