White Zombie - I Am Legend Chords & Tabs

 

I Am Legend Chords & Tabs

White Zombie Chords & Tabs

Version: 3 Type: Tab 0 ratings
1 star 2 stars 3 stars 4 stars 5 stars
comments

I Am Legend Tab

   
From: "Marty Carlton" 
Subject: w/white_zombie/i_am_legend_intro.tab
Date: Fri, 16 July 2004 

Author/Artist: White zombie [J the man(what's he doing now?)]
Title: I Am Legend
Album: La Sexorcisto
Transcribed by: Valmor-tician
Email: darkp24@hotmail.com

since i hadn't found any tab that seemed to play perfectly along with
the intro, the perfectionist that i am thought i'd do up some tab for
it myself...so it aught to be good enough for a impatient perfectionist...
the double notes down there (ex: 0-0) may not be right, but i hadn't the 
time to listen, or the money to slow down the recording while retaining 
pitch...so yeah..this aught to be a better start than the other tabs i've
seen..drop an email if you enjoy it!

                                    I Am Legend
				   by White Zombie


Gtr I (E A D G B E) - 'guitar'

  Q=120
 4/4
  Gtr I
  E E E E E E E E   E E E E E E E E    E E E E E E E E    E E E E E E E E
|---3-----3-----3-|---------2--------|---------------0--|-----------0-----|
|-----------------|---0-------0---0--|---------3--------|-3---3-------3---|
|-----0-----0-----|-----0-------0----|---0-------0------|---0---0-------0-|
|-2-----2-----2---|-1-----1----------|-----2-------2----|---------2-------|
|-----------------|------------------|-3-----3----------|-----------------|
|-----------------|------------------|------------------|-----------------|


  E E E E E E E E   E E E E E E E E   E E E E E E E E   E E E E E E Q
|---3-----3-----3-|---2-----2-------|---------0-------|---------2---------|
|-----------------|-----0-----0-----|---3-------3-----|---3-------3-------|
|-----0-----0-----|-----------------|-----0---------0-|-----4-------------|
|-2-----2-----2---|-1-----1-----0-2-|-----------------|-------------------|
|-----------------|-----------------|-3-----3-----3---|-2-----2-----2/----|
|-----------------|-----------------|-----------------|-------------------|


 E E E E E E E E    E E E E E E E E    E E E E E E E E   +E  E E E E E E E
|-----------------|------------------|---------0-----0-|-(0)---0-----0----|
|-----------------|------------------|---4-------4-----|-----4---4-----4--|
|--7-----7-----7--|-----7-----7------|-----2-------2---|-----------2-----2|
|------0-----0----|---0-----0---0----|-----------------|------------------|
|5---5-----5------|-5-----5-------5--|-0-----0---------|------------------|
|-----------------|------------------|-----------------|------------------|


  E E E E E E E E   E E E E E E E E   E E E E E E E E   E E E E E E Q
|-----------------|-----------------|---------0-----0-|-0---0-0---0-------|
|-----------------|-----------------|---4-------4-----|-------------4\----|
|---7-----7-----7-|-----7-----7-----|-----2-------2---|---2-----2---------|
|-0-----0-----0---|---0-----0---0---|-----------------|-------------------|
|-----5-----5-----|-5-----5-------5-|-0-----0---------|-------------------|
|-----------------|-----------------|-----------------|-------------------|


  E E E E E E E E   E E E E E E Q     E E E E E E E E   E E E E E E E E
|-----------------|-----------------|---0-------0---0-|-----0-----0---0---|
|-----------------|-5-----5-----5\--|-----0-------0---|-0-----------5-----|
|-----0-----0-----|---5-----5-------|---------3-------|---3---3-----------|
|---4-----4---4---|-----4-----4-----|-2-----2---------|---------2---------|
|-3-----3-------3-|-----------------|-----------------|-------------------|
|-----------------|-----------------|-----------------|-------------------|

[ Tab from: http://www.guitartabs.cc/tabs/w/white_zombie/i_am_legend_tab_ver_3.html ]
  E E E E E E E E   E E E E E E E E    E E E E E E E E   E E E E E E E E
|---------------0-|-----------0------|---------0-------|---------0--------|
|---------0-------|-0---0-------0----|---0-0-----0-0-0-|-----------0------|
|---0-------0-0---|---0---0----------|-----------------|---0-0---------0--|
|-----5-----------|------------------|-----------------|------------------|
|-3-----3---------|---------3-----3/-|-7-----7---------|-5-----5-----5----|
|-----------------|------------------|-----------------|------------------|


  E E E E E E E E   E E E E E E E E   E E E E E E E E   E E E E E E E E
|---------0-------|---------0-------|-----------------|-3-----2-----------|
|---------0-0---0-|-----------0-----|---------0-------|---0-----0---------|
|-----2---2---2---|---0-0---------0-|---2-2-----2-----|-----------0-------|
|---5---5---------|-----------------|-----------------|-------------------|
|-4---------------|-3-----3-----3---|-2-----2-----2-2-|-----2-------0-2---|
|-----------------|-----------------|-----------------|-------------------|


  E E E E E E E E   E E E E E E E E   E E E E E E E E   E E E E E E E E
|---------------0-|-----------0-----|-----------------|-3-----2-----------|
|---------3-------|-3---3-------3---|---------0-------|---0-----0---------|
|---3-------3-----|-------3---------|---2-2-----2-----|-----------0-------|
|-----2-----------|---2-----------2-|-----------------|-------------------|
|-3-----3-----3---|---------3-------|-2-----2-----2-2-|-----2-------0-2---|
|-----------------|-----------------|-----------------|-------------------|


 E E E E E E E E   E E E E E E E E  +E   E E E E E E E   E E E E S S E E E
|--------------0-|-----------0-----|-------------------|------------------|
|--------3-------|-3---3-------3---|-------------------|-5-------------5--|
|--3-------3-----|-------3---------|-------7-------7---|---7-------7-----7|
|----2-----------|---2-------------|---------5---9-----|-------9----------|
|3-----3-----3---|---------3-----3-|(3)/-7-----7-----7-|-----7---7---7----|
|----------------|-----------------|-------------------|------------------|


  E  E E E E E E E   E E E E E E E E   E E E E E E E E   E E E E E E E E
|------------3-----|-------3---------|-----------------|-3-----2----------|
|------5-------5---|-5-------5---5---|---------0-------|---0-----0--------|
|--------3-------3-|---3-------3-----|---2-2-----2---2-|-----------0------|
|-9--------5-------|-----5-----------|-----------------|------------------|
|---\3-------------|---------------0-|-2-----2-----2---|-----2------------|
|------------------|-----------------|-----------------|-------------3-2--|


  Q  E E E E Q    E E E E Q  E E   E E E E E E E E   E E E Q  E E E
|--------0---0--|-----0----------|-0-----0---0---0-|---0----------0---|
|------0--------|---0---0------0-|---0-----0---0---|-0---0------0-----|
|----3-----3----|-3----------3---|-----0-----------|----------3-------|
|---------------|----------------|-----------------|------------------|
|---------------|----------------|-----------------|------------------|
|-0-------------|---------0------|-----------------|-------0----------|


  E E E E E E E E   E E Q E E E E E   E E E E E E Q    E E E E E E E E
|-----0---0-------|-0-0-----0-------|-0--------------|-0-0-0-0-0-0-0-0-|
|-0-----0---0---0-|-------0---0---0-|---0-----0------|-0-0-0-0-0-0-0-0-|
|---0---------3---|-------------3---|-------3---0----|-4-4-4-4-4-4-4-4-|
|-----------------|-----------------|----------------|-2-2-2-2-2-2-2-2-|
|-----------------|-----------------|----------------|-x-x-x-x-x-x-x-x-|
|-----------------|-----0-----------|-----0-------0--|-0-0-0-0-0-0-0-0-|


Duration Legend
---------------
W - whole; H - half; Q - quarter; E - 8th; S - 16th; T - 32nd; X - 64th; a - acciaccatura
+ - note tied to previous; . - note dotted; .. - note double dotted

Tablature Legend
----------------
 /\  - slide into or out of (from/to "nowhere")
 x   - on rhythm slash represents muted slash
***************************************************************************************
* Generated using Power Tab Editor by Brad Larsen - http://powertab.guitarnetwork.org *
***************************************************************************************
Comments