White Zombie - Grease Paint And Monkey Brains Chords & Tabs

 

Grease Paint And Monkey Brains Chords & Tabs

White Zombie Chords & Tabs

Version: 1 Type: Tab 0 ratings
1 star 2 stars 3 stars 4 stars 5 stars
comments

Grease Paint And Monkey Brains Tab

   
#----------------------------------PLEASE NOTE--------------------------------#
#This file is the author's own work and represents their interpretation of the#
#song. You may only use this file for ####### study, scholarship, or research.#
#-----------------------------------------------------------------------------#


Band:White Zombie
Song: Grease Paint And Monkey Brains
Album: Astro-Creep 2000 and Twisted Metal 4 videogame soundtrack.

Transcried by Rodrigo "R0D Z0MBIE" Espichan
E-mail: rodzombie_89@hotmail.com
        rod_zakkwylde@hotmail.com

It`s incredible that no one had tabbed such an easy song.
________________________________________
					|
TUNING: D				|
                                        |
E[------------                          |
B[------------                          |
G[------------   			|
D[------------                          |
A[------------  			|
E[------------                          |
________________________________________|
				        |
Key:      				|
                                        |
\: Slide down   			|	                                |
p: Pull off     			|
~: Vibrato    				|
.: Palm mute                            |
^: Bend       				|
________________________________________|


Intro:

funny noises then...
                                    x 2
[-----------------------------------]
[---------7^------7^-----7^------7^-]
[---------5^------5^-----5^------5^-]
[-----------------------------------]
[-2-2-2-2----2--2----2-2----2--2----]
[-0-0-0-0----0--0----0-0----0--0----]

Verse (just bass, drums and samples):

Oh, Death is on the midway
Gambling with souls
Roulette on the wire
Ace is in the hole 
I sink beneath the feeling 
Moon is in my hands
A crooked wheel of 21
I just  dont understand ¡NO!

Chorus:

          Laugh
[---------------------------------]
[---------------------------------]
[---------------------------------]
[---------------------------------]
[-----2-2----2-22-----------------]
[-14\-0-0-6^-0-00-5p0-3-3---------]

       Yeah!   drown and
[------------------------------]
[------------------------------]
[------------------------------]
[------------------------------]
[--2-2----2-22-----------------]
[--0-0-6^-0-00-5p0-3-----------]

 Laugh
[---------------------------------]
[---------------------------------]
[---------------------------------]
[---------------------------------]
[-----2-2----2-22-----------------]
[-14\-0-0-6^-0-00-5p0-3-3---------]

       Yeah!   your life it`s over
[------------------------------]
[------------------------------]
[------------------------------]
[------------------------------]
[--2-2----2-22--------2--------]
[--0-0-6^-0-00-5p0-3--0--------]

Verse (no guitar):

Oh, if God is the dealer ¿why do we never win?
A bloody mix of silk and mood that starts all over again ¡NO!

Repeat chorus:

[---------------------------------]
[---------------------------------]
[---------------------------------]
[---------------------------------] x 4
[-----2-2-9^-7--7-7--7-6-5-3------]
[-14\-0-0-------------------------]
          
          yeah!   yeah1  yeah!   yeah!
[-----------------------------------]
[---------7^------7^-----7^------7^-]
[---------5^------5^-----5^------5^-]
[-----------------------------------]
[-2-2-2-2----2--2----2-2----2--2----]
[-0-0-0-0----0--0----0-0----0--0----]

SOLO:
[ Tab from: http://www.guitartabs.cc/tabs/w/white_zombie/grease_paint_and_monkey_brains_tab.html ]
[------------------------------------------------]
[------------------------------------------------]
[-14-12------------------------------------------]
[-------12-12-12--12-10--------------7^-0-0------]
[-----------------------12h11h10-10--------------]
[------------------------------------------------]

[---------------------------------------------------]
[---------------------------------------------------]
[-------------------------------6^-6^-----6h5h0-4^--]
[-------------10\---7h5h0---5^--------6\------------]
[-------10----10\-7-------7-------------------------]
[-10-12----12---------------------------------------]

[------------------------------------------------
[------------------------------------------------
[-8h9h10-8h9h10-7h8h9-7h8h9-5h6h7-5h6h7-4^-------
[------------------------------------------------
[------------------------------------------------
[------------------------------------------------

------------------10^--10-10-8-10\-10h9h8-7^--17----15~~~~~~--]
---5\-5h4h3-5h4h3--------------------------------14-----------]
-6------------------------------------------------------------]
--------------------------------------------------------------]
--------------------------------------------------------------]
--------------------------------------------------------------]
                                   
[--------------------------------------]
[---------7^------7^-----7^---------7^-]
[---------5^------5^-----5^---------5^-]
[--------------------------------------]
[-2-2-2-2----2--2----2-2----2--2-------]
[-0-0-0-0----0--0----0-0----0--0-------]

(Laughing)

Verse 3:
Oh, Clowns they scare the children, roll around the ring
The animals they wanna kill, anyone, ANYTHING!!!!!!!!

         Laugh
[---------------------------------]
[---------------------------------]
[---------------------------------]
[---------------------------------]
[-----2-2-5--2-22-----------------]
[-14\-0-0-3--0-00-5p0-3-3---------]

       Yeah!   drown and
[------------------------------]
[------------------------------]
[------------------------------]
[------------------------------]
[--2-2-5--2-22-----------------]
[--0-0-3--0-00-5p0-3-----------]

 Laugh
[---------------------------------]
[---------------------------------]
[---------------------------------]
[---------------------------------]
[-----2-2-5-2-22------------------]
[-14\-0-0-3-0-00-5p0-3-3----------]

       Yeah!   your life it`s over
[------------------------------]
[------------------------------]
[------------------------------]
[------------------------------]
[--2-2-5--2-22--------2--------]
[--0-0-3--0-00-5p0-3--0--------]

End:

[------------------------------------------]
[------------------------------------------]
[------------------------------------------]
[------------------------------------------]
[------------------------------------------]
[-0-0-0--0-0--0-0--0-0--0-0--0-0--0-0--0-0-]
  . . .  . .  . .  . .  . .  . .  . .  . .

Continued...
[----------------------------------------------------]
[----------------------------------------------------]
[----------------------------------------------------]
[----------------------------------------------------]
[----------------------------------------------------]
[-0--0-0--0-0--0--0-0-0--0--0-0--0-0--0--0-0-0-------]
  .  . .  . .  .  . . .  .  . .  . .  .  . . .

Repeat and fade out

That`s it!!
Its not bad at all, for the solo you can use a Wah-Wah pedal and here you go!

Any comments or corrections, please e-mail me.
Comments