White Zombie - Cosmic Monsters Inc Chords & Tabs

 

Cosmic Monsters Inc Chords & Tabs

White Zombie Chords & Tabs

Version: 1 Type: Bass Tab

Cosmic Monsters Inc Bass Tab

   
Band- White Zombie
Song- Cosmic Monsters Inc.

Come in at (0:14)   Intro
g------------------------------------------|
d------------------------------------------|
a-------6-5--------------------------------|  X4
e-0-0-6-5-0-0---0-0-6-5---0-3-0-3-0-3------|

Guitar intro again (do nothing)

 Intro riff X4
[ Tab from: http://www.guitartabs.cc/tabs/w/white_zombie/cosmic_monsters_inc_btab.html ]
guitar inrto yet again
              Riff A start at (0:44)
g-----------------------------------------------|
d-----------------------------------------------|
a-----------------------------------------------|
e-0-0-0-3-0-0-5-0-0-0-3-0-0-5-0-0-0-3-0-3-3-5-6-|
second time play it like this
g-----------------------------------------------|
d-----------------------------------------------|
a-----------------------------------------------|
e-0-0-0-3-0-0-5-0-0-0-3-0-0-5-0-0-0-0-0-0-0-0-0-|
               Riff B start at (0:54)
g---------------------------|
d---------------------------| "well, how big is life?"
a---------------------------|
e-3-3/5-0-0-3-3/5-0-0-3-0-6-|
		Riff C start at (1:17)
g--------------------------------------|
d--------------------------------------|    sampled
a-----3----5----6----3--3-5-6----------|"let's turn it on"
e-0-0--0-0--0-0--0-0--0----------------|

Riff B at (1:34) "well, how high is up?"
Riff C at (1:56) "so losely illustrated" but end it like this
g-----------------------------------------|
d-----------------------------------------|
a------3------5-------6-5-3-0-------------|
e-0-0----0-0----0-0--------------6-5-3-0--|
then at (2:40) start this
g-----------------------------------------|
d-----------------------------------------|
a-----------------------------------------|
e-0-0-0-0----------3-5-6------------------|
next, at (2:47) play Riff A thru guitar solo until (3:20)
then play this
g------------------|
d------------------|
a-5-5-5-5-5--5-7-5-| X3	"they come from the bowels of hell"
e------------------|
Then

g---------------------------|
d---------------------------|
a-5-5-5-5-5-7-0-5-0-3-0-1-0-|
e---------------------------|

then Riff B at (3:31) till (3:52)

next, Riff C at (3:52) till (4:20)

then it's that guitar intro do nothing

then play the modified intro at (4:35) something alike,
g-----------------------------------------|
d-----------------------------------------|
a-----------------------------------------|
e--6-5-0-0-0-0--3-5-6-5-3-5-6-5-3-5-6-5---| play this untill the end at (4:52)