White Zombie - Black Sunshine Chords & Tabs

 

Black Sunshine Chords & Tabs

White Zombie Chords & Tabs

Version: 2 Type: Tab

Black Sunshine Tab

   
-----------------------------------------------------------------------------
                         BLACK SUNSHINE - WHITE ZOMBIE
-----------------------------------------------------------------------------

tabbed by: Chuck Jones
HATEGROOVE


e|---9------12------9------3------9------12------9------12-------------------|
B|---9------12------9------3------9------12------9------12-------------------|
G|---9------12------9------3------9------12------9------12-------------------|
D|---9------12------9------3------9------12------9------12-------------------|
A|---------------------------------------------------------------------------|
E|---------------------------------------------------------------------------|

e|---------------------------------------------------------------------------|
B|---------------------------------------------------------------------------|
G|---------------------------------------------------------------------------|
D|----------------------------------------5----------------------------------|
A|---0---3---5---0---5---6---0---5--6--7-----6-------------------------------|
E|---------------------------------------------------------------------------|

e|---------------------------------------------------------------------------|
B|---------------------------------------------------------------------------|
G|---------------------------------------------------------------------------|
D|---------------------------------------------------------------------------|
A|----------------------------------------3--4--5--6-------------------------|
E|---2--1--0--2--1--0--2--1--0--2--1--0---1--2--3--4-------------------------|
[ Tab from: http://www.guitartabs.cc/tabs/w/white_zombie/black_sunshine_tab_ver_2.html ]
e|---------------------------------------------------------------------------|
B|---------------------------------------------------------------------------|
G|---------------------------------------------------------------------------|
D|---------7--------9--------7--------9--------------------------------------|
A|---------5--------7--------5--------7--------8--9--------------------------|
E|---0--0-----0--0-----0--0-----0--0-----0--0--6--7--------------------------|

e|---------------------------------------------------------------------------|
B|---------------------------------------------------------------------------|
G|---------------------------------------------------------------------------|
D|---------7--------9--------7--------9--------------------------------------|
A|---------5--------7--------5--------7--------4--5--------------------------|
E|---0--0-----0--0-----0--0-----0--0-----0--0--2--3--------------------------|

e|----------------------------------------------------------------12--12--12-|
B|----------------------------------------------------------------12--12--12-|
G|----------------------------------------------------------------12--12--12-|
D|----------------------------------------------------------------12--12--12-|
A|---------------------------------------------------------------------------|
E|---0-0-0-0-0-0-0-0-0-0-0-0-0-0-0-0-0-0-0-0-0-0-0-0-0-0-0-0-0---------------|

e|---------------------------------------------------------------------------|
B|---------------------------------------------------------------------------|
G|---------------------------------------------------------------------------|
D|---------------------------------------------------------------------------|
A|---------------------------------------------------------------------------|
E|---0---3---5---0---3---5---0---3---5---0---6--5----------------------------|

e|---------------------------------------------------------------------------|
B|---------------------------------------------------------------------------|
G|---------------------------------------------------------------------------|
D|---------------------------------------------------------------------------|
A|---0---3---5---0---3---5---0---3---5---0---5~~~----------------------------|
E|---------------------------------------------------------------------------|


| /  slide up
|   slide down
| h  hammer-on
| p  pull-off
| ~  vibrato
| +  harmonic
| x  Mute note
=============================================================================