White Zombie - Black Sunshine Chords & Tabs

 

Black Sunshine Chords & Tabs

White Zombie Chords & Tabs

Version: 1 Type: Tab 0 ratings
1 star 2 stars 3 stars 4 stars 5 stars
comments

Black Sunshine Tab

          Band:White Zombie
          Song:Black Sunshine
          By:Kenny Neumann
          
          ----------------------------------------|------------------------------------- 
          ----------------------------------------|------------------------------------- 
          -10/12*13--10/13*14--10/12*13--10/13*14-|------------------------------------- 
          -10/12*13--10/13*14--10/12*13--10/13*14-|------------------------------------- 
          -8//10*11--8//11*12--8//10*11--8//11*12-|--7-8--8-9--7-8-9-10-9--------------- 
          -8//10*11--8//11*12--8//10*11--8//11*12-|-8----8----8------------------------- 
           (bass intro then guitar enters)                  (4 times)                    
          
          ----------------------------------------|------------------------------------- 
          ----------------------------------------|------------------------------------- 
          -10/12*13--10/13*14--10/12*13--10/13*14-|------------------------------------- 
          -10/12*13--10/13*14--10/12*13--10/13*14-|------------------------------------- 
          -8//10*11--8//11*12--8//10*11--8//11*12-|--7-8--8-9--7-8-9-10-9--------------- 
          -8//10*11--8//11*12--8//10*11--8//11*12-|-8----8----8------------------------- 
               ( V E R S E )                        Sweet'n  
          
          ----------------------------------------|------------------------------------- 
          ----------------------------------------|------------------------------------- 
          -10/12*13--10/13*14--10/12*13--10/13*14-|------------------------------------- 
          -10/12*13--10/13*14--10/12*13--10/13*14-|------------------------------------- 
          -8//10*11--8//11*12--8//10*11--8//11*12-|--7-8--8-9--7-8-9-10-9----7-8--8-9--- 
          -8//10*11--8//11*12--8//10*11--8//11*12-|-8----8----8-------------8----8------ 
               ( V E R S E )                        Sweet'n  
          
          -------------------------------------|--------------------------|------------- 
          -------------------------------------|--------------------------|------------- 
          -------------------------------------|-6-x-8-x-6-x-8-5----------|------------- 
          ----------------------------7-8-9-10-|-6-x-8-x-6-x-8-5----------|------------- 
          ----------------------------7-8-9-10-|-4-x-6-x-4-x-6-3----------|------------- 
          -8-7-5--8-7-5--8-7-5--8-7-5-5-6-7-8--|--------------------------|------------- 
                 ( 4 t i m e s )                       (8 times)                         
          
          -----------------------------------------------9*11-9*11-9*11-|--------------- 
          --------------------------------------------------------------|--------------- 
          --------------------------------------------------------------|--------------- 
          --------------------------------------------------------------|--------------- 
          --------------------------------------------------------------|--------------- 
          -0-0-0-0-0-0-0-0-0-0-0-0^0^0^0-1-0-0-0-0-0-0-0----------------|--------------- 
          
          -----------------|------------------------------------------------------------ 
          -----------------|------------------------------------------------------------ 
          -6-x-8-x-6-x-8-5-|------------------------------------------------------------ 
          -6-x-8-x-6-x-8-5-|------------------------------------------------------------ 
          -4-x-6-x-4-x-6-3-|------------------------------------------------------------ 
          -----------------|------------------------------------------------------------ 
            (4 times)                                                                    
          
          -----------------------------------------------9*11-9*11-9*11--|-------------- 
          ---------------------------------------------------------------|-------------- 
          ---------------------------------------------------------------|-------------- 
          ---------------------------------------------------------------|-------------- 
          ---------------------------------------------------------------|-------------- 
          -0-0-0-0-0-0-0-0-0-0-0-0^0^0^0-1-0-0-0-0-0-0-0-----------------|-------------- 
          
          --------------------------||-----------------------------------|-------------- 
          --------------------------||-----------------------------------|-------------- 
          --------------------------||-----------------------------------|-------------- 
          --------------------------||-----------------------------------|-------------- 
          --8-9--9-10--8-9-10-11-10-||-2-3-4-2-4-5-2-4-5-6-5-------------|-------------- 
          -9----9-----9-------------||-----------------------------------|-------------- 
            (4 times)                   Sweet'n  
          
          -----------------------|------------------------------------------------------ 
          -----------------------|------------------------------------------------------ 
          -----------------------|-10-12\10-------12\10--------------------------------- 
          -----------------------|-10-12\10-11/10-12\10--------------------------------- 
          --7-8--8-9--7-8-9-10-8-|-8--10\8--9//8--10\8---------------------------------- 
          -8----8----8-----------|------------------------------------------------------ 
            (4 times)                                                                    
          
          ------------------------------------------------------------------------------ 
          ------------------------------------------------------------------------------ 
          ------------------------------------------------------------------------------ 
          ------------------------------------------------------------------------------ 
          -8-8-8-8-8-8-8-8-8-8-8-8-9-10-11-10--8-8-8-8-8-8-9-11-10-11-12-11-9-13-12-11-- 
          -8-8-8-8-8-8-8-8-8-8-8-8-------------8-8-8-8-8-8------------------------------ 
                                     ( 2 t i m e s )                                     
          
          ------------------------------------------------------------------------------ 
          ------------------------------------------------------------------------------ 
          ------------------------------------------------------------------------------ 
          -----------------------------------------------------13-12-11-11-10-9-10-9-8-- 
          -8-8-8-8-8-8-8-8-8-8-8-8-9-10-11-10--8-8-8-8-8-8-8-8-------------------------- 
          -8-8-8-8-8-8-8-8-8-8-8-8-------------8-8-8-8-8-8-8-8-------------------------- 
                                                                                         
          ------------------------------------------------------------------------------ 
          ------------------------------------------------------------------------------ 
          -----------------------------------------------------10----------------------- 
          -----------------------------------------------------10----------------------- 
          -8-8-8-8-8-8-8-8-8-8-8-8-9-10-11-10--8-8-8-8-8-8-8-8-8----9-11-10-11-12-11-9-- 
          -8-8-8-8-8-8-8-8-8-8-8-8-------------8-8-8-8-8-8-8-8-8--------------------- 
                                                                           
          ------------------------------------------------------------------------------ 
          ------------------------------------------------------------------------------ 
          ------------------------------------------------------------------------------ 
          ------------------------------------------------------------------------------ 
          -13-12-11--------------------------------------------------------------------- 
          ------------------------------------------------------------------------------
[ Tab from: http://www.guitartabs.cc/tabs/w/white_zombie/black_sunshine_tab.html ]
Comments