White Zombie - Astro-creep 2000 Chords & Tabs

 

Astro-creep 2000 Chords & Tabs

White Zombie Chords & Tabs

Version: 1 Type: Tab 0 ratings
1 star 2 stars 3 stars 4 stars 5 stars
comments

Astro-creep 2000 Tab

   
#----------------------------------PLEASE NOTE--------------------------------#
#This file is the author's own work and represents their interpretation of the#
#song. You may only use this file for private study, scholarship, or research.#
#-----------------------------------------------------------------------------#

Band: White Zombie
Album: Astro-Creep: 2000
Tabber: Rodrigo "R0D ZOMBIE" Espichan
E-mail: rodzombie_89@hotmail.com
        rod_zakkwylde@hotmail.com

Here is the whole Astro-Creep: 2000 album by White Zombie, for me, it`s my favourite
WZ album. It has incredible songs. Tell me what you think about it and rate!

Enjoy the tab


Tracks:
-------

1_ Electric Head PT. 1 (The agony) (*)
2_ Super Charger Heaven
3_ Real Solution #9  (*)
4_ Creature Of The Wheel
5_ Electric Head PT. 2 (The ecstasy)
6_ Grease Paint And Monkey Brains (*)
7_ I, Zombie
8_ More Human Than Human
9_ El Phantasmo And The Chicken Run Blast-o-rama
10_ Blur The Technicolor
11_ Blood Milk And Sky (*)

Tracks marked with (*) means that the tab includes the lyrics.


-------------------------------------------------------------------------------------
Key Notation:

^: Bend
~: Vibrato
.: Palm Mute
h: Hammer on
/: Slide down
\: Slide up
(): Sugested note
-------------------------------------------------------------------------------------
1_Electric Head PT. 1 (The agony)

TUNING: D

Voice intro:

"Perhaps you had better start from the beginning..."

KEYBOARDS...

Intro (use a Wah Wah):

[--------------------]
[--------------------]
[---5~~~~~-----------]
[--------------------]
[--------------------]
[--------------------]

Intro (Verse Riff)
[---------------------------------------]
[---------------------------------------]
[---------------------------------------]
[---------------------------------------]
[-2-2-8\5--2-2-8\5--2-2-8\5--2-2-7(5)---]}
[-0-0-6\3--0-0-6\3--0-0-6\3--0-0-5(3)---]}
  . .      . .      . .      . .     	 }
[---------------------------------------]} x 2
[---------------------------------------]}
[---------------------------------------]}
[---------------------------------------]
[-2-2-8\5--2-2-8\5--2-2-8\5--2-2-6---6--]
[-0-0-6\3--0-0-6\3--0-0-6\3--0-0-4-0-4--]
  . .      . .      . .      . .   .

Repeat all again with the lyrics:

We all go down for the sacrificial moment
Crucifiction nails stain the bed of the holy
Space thing blues, diamond studded sugar coated
Well i am hell a miracle overloading

Chorus:

Turn me on yeah
[----------------------------------]
[----------------------------------]
[----------------------------------]
[-5~~--5---------------------------]
[-5~~--5-2-2-2-2-2-2-2-------------]
[-3~~--3-0-0-0-0-0-0-0-------------]
       . . . . . . . .
Electric head all over
[----------------------------------]
[----------------------------------]
[----------------------------------]
[-5~~--5---------------------------]
[-5~~--5-2-2-2-2-2-2-2-------------]
[-3~~--3-0-0-0-0-0-0-0-------------]
       . . . . . . . .

Turn me on yeah
[----------------------------------]
[----------------------------------]
[----------------------------------]
[-5~~--5---------------------------]
[-5~~--5-2-2-2-2-2-2-2-------------]
[-3~~--3-0-0-0-0-0-0-0-------------]
       . . . . . . . .
Electric head all over
[----------------------------------]
[----------------------------------]
[----------------------------------]
[-5~~--5---------------------------]
[-5~~--5-2-2-2-2-2-2-2-------------]
[-3~~--3-0-0-0-0-0-0-0-------------]
       . . . . . . . .

Play the verse riff:
We all go down for the god of the moment
Super demon seed running wild and below and
Head trip news turn a trick to the flow and
Sugarland express what you know and

Continue playing the verse riff:
Get inside, Get in there
Evil in your eyes baby, i don`t care
Get inside, Get in there
See the flesh falling everywhere

Chorus...

Bridge:
[----------1////-------------------]
[----------1////-------------------]
[----------1////-------------------] x 3
[-7-5-2\---------------------------]
[-7-5-2\---------------------------]
[-5-3-0\---------------------------]
       DIVE

[----------------------------------]
[----------------------------------]
[----------------------------------]
[-7-5-2\---------------------------]
[-7-5-2\---------------------------]
[-5-3-0\---------------------------]

BREAK

[----------------------------------]
[----------------------------------]
[----------------------------------]
[----------------------------------]
[-0h2-0h4-4h5-6/5------------------]
[-0h2-0h4-4h5-6/5------------------]

[------]
[------]
[------]
[-0-0--] x 16
[-0-0--]
[-0-0--]
  . .

verse riff:
Get inside, Get in there
Evil in your eyes baby, i don`t care
Get inside, Get in there
See the flesh falling everywhere

Chorus...

BREAK

[----------------------------------]
[----------------------------------]
[----------------------------------]
[----------------------------------]
[-0h2-0h4-4h5-6/5------------------]
[-0h2-0h4-4h5-6/5------------------]

[------]
[------]
[------]
[-0-0--] x 4
[-0-0--]
[-0-0--]
  . .

Play verse riff:

We all go down for a piece of the moment
Watch another burn to the death to the core and
Roadshow thrills pack the freaks and the phonies and
Now is now, ¡yeah!, all i ever wanted

Repeat Chorus...

END:

[--------------------------------------]
[--------------------------------------]
[--------------------------------------]
[-2\-----------------------------------]
[-2\--0h2-0h4-4h5-8/7------------------]
[-0\--0h2-0h4-4h5-8/7------------------]

____________________________________________________________________________________
2_ Super-Charger Heaven

Dropped D Tuning

INTRO:
E|----------------------------|---------------------------|
B|----------------------------|---------------------------|
G|-5-5-4--5-5-4--5-5-4--5-5-4-|-5-5-5-4-------------------| x 2
D|-x-x-x--x-x-x--x-x-x--x-x-x-|-x-x-x-x-------------------|
A|-3-3-2--3-3-2--3-3-2--3-3-2-|-3-3-3-2-------------------|
E|----------------------------|---------------------------|


E|-----------------------------|-----------------------------|
B|-----------------------------|-----------------------------|
G|-----------------------------|-----------------------------| x 4
D|-3h5--5-5--3h5--5-5--3h5-3-0-|-3h5--5-5--3h5--5-5--3h5-3-0-|
A|-3h5--5-5--3h5--5-5--3h5-3-0-|-3h5--5-5--3h5--5-5--3h5-3-0-|
E|-3h5--5-5--3h5--5-5--3h5-3-0-|-3h5--5-5--3h5--5-5--3h5-3-0-|


Solo 1:
E|--------------------------------------------------|
B|---8---8--8--8--8---8---8-8-8--8-8-8--------------|
G|--10b-10-10-10-10-10----7-7-7--6-6-6--------| x 2-|
D|--------------------------------------------------|
A|--------------------------------------------------|
E|--------------------------------------------------|
      |hold bend------------------------------------|

E|-------------------------------------------|
B|---8---8--8--8--8---8---8---8--8--8--8--8--|
G|--10b-10-10-10-10--10--10b-10-10-10-10-10--|
D|-------------------------------------------|
A|-------------------------------------------|
E|-------------------------------------------|
      hold bend-----------|   hold bend------|

E|-13-13-13-12-13-13-12-13-13-13-15-15-15-15-15-15---|
B|-12-12-12-12-12-12-12-12-12-12-12-12-12-12-12-12---|
G|---------------------------------------------------|
D|---------------------------------------------------|
A|---------------------------------------------------|
E|---------------------------------------------------|

Verse intro:
E|-----------------------------------|
B|-----------------------------------| X 3
G|-------------------------7^-7^-7^--|
D|-----------------------------------|
A|-----------------------------------|
E|-3p0-0-5p0-0-6p0-0-5p0-0-----------|

E|-------------------------------------|
B|-------------------------------------| X 3
G|------------------------12^-12^-12^--|
D|-------------------------------------|
A|-------------------------------------|
E|-3p0-0-5p0-0-6p0-0-5p0-0-------------|


VERSE RIFF:
E|-----------------------------------|
B|-----------------------------------|
G|-----------------------------------| X 8
D|--------------------------6--6-----|
A|--------------------------6--6-----|
E|-3p0-0-5p0-0-6p0-0-5p0-0--6--6-----|

           			        YEAAHH!!!!
E|----------------------------|---------------------------|
B|----------------------------|---------------------------|
G|-5-5-4--5-5-4--5-5-4--5-5-4-|-5-5-5-4-------------------| x 2
D|-x-x-x--x-x-x--x-x-x--x-x-x-|-x-x-x-x-------------------|
A|-3-3-2--3-3-2--3-3-2--3-3-2-|-3-3-3-2-------------------|
E|----------------------------|---------------------------|


 CHORUS:
E|-----------------------------|-----------------------------|
B|-----------------------------|-----------------------------|
G|-----------------------------|-----------------------------| x 4
D|-3h5--5-5--3h5--5-5--3h5-3-0-|-3h5--5-5--3h5--5-5--3h5-3-0-|
A|-3h5--5-5--3h5--5-5--3h5-3-0-|-3h5--5-5--3h5--5-5--3h5-3-0-|
E|-3h5--5-5--3h5--5-5--3h5-3-0-|-3h5--5-5--3h5--5-5--3h5-3-0-|


Repeat verse intro (As above)


VERSE RIFF:
E|-----------------------------------|
B|-----------------------------------|
G|-----------------------------------| X 8
D|--------------------------6--6-----|
A|--------------------------6--6-----|
E|-3p0-0-5p0-0-6p0-0-5p0-0--6--6-----|


Again, Chorus...

Solo 2:
E|--------------------------6-6--6-------------------------|
B|---8---8--3--3-3-3-3-3--6-6-6--6-----5p3------------3----|
G|--10b-10b-5b-5-5-5-5-5------5b-3-----5p3------------3----|
D|-----------------------------------------5-------5--3--5-|
A|---------------------------------------------------------|
E|---------------------------------------------------------|
                        hold bend---|

E|--------x-x-x----------------------------------------6-6-6-6-6----|
B|--------x-x-x---8---8--8-----1--1-1---1--1-3-3---3---6-6-6-6-6----|
G|--/12\---------10b-10-10-----5b-5-5---5b-5-5-5---5----------------|
D|------------------------------------------------------------------|
A|------------------------------------------------------------------|
E|------------------------------------------------------------------|
                            hold Bend-|    hold Bend   hold Bend

E|---------------------------|
B|----5-5-3--------3--3------|
G|--3-5-5-3--------3--3---3\-|
D|-----------5-3-5-----------|
A|---------------------------|
E|---------------------------|


 BRIDGE: 			X 7
E|-----------------------------|
B|-----------------------------|
G|--------------------7^-7^-7^-|
D|-----------------------------|
A|-----------------------------|
E|-----------------------------|

LAST TIME:
E|-------------------------------------|
B|-------------------------------------|
G|------------------------12^-12^-12^--|
D|-------------------------------------|
A|-------------------------------------|
E|-------------------------------------|

VERSE RIFF

CHORUS


Solo 3
E|----------------------------------------------------------------------|
B|-10-10-10-10-10-10-10-10----3--3---3--3-3-3--3--3-3--3--3--3----------|
G|-10-10-10-10-10-10-10-10----5b-5---5b-5-5-5--5b-5-5--5--2--0----------|
D|-------------------------------------------------------------5h6p5p3--|
A|----------------------------------------------------------------------|
E|----------------------------------------------------------------------|

E|------------------------------------------------------------------------|
B|------------------------------------------------------------------------|
G|------------------------------------------------------------------------|
D|------------------------------------------------------------------------|
A|-----------------------7--7--7--7--7---7--7-7----7--7--7--7--7--7--7-7--|
E|-0-DIVE----------------12-12-12-11-11--11-8-8----12-12-12-11-11-11-8-8--|

E|--10-10-10-10-10-10-10-10--10--10-10-10-10-10-10-10-----|
B|--13-13-13-12-12-12-10-10--13b-13-13-13-13-13-13-13-----|
G|--------------------------------------------------------|
D|--------------------------------------------------------|
A|--------------------------------------------------------|
E|--------------------------------------------------------|
                                                     Hold
bend------------------|
____________________________________________________________________________________
3_ Real Solution #9

Drop D tuning

Riff 1

Use a slide, or whammy bar is ok
        s        s                s
E ------------------------||-----------------0-|
B ------------------------||-----------------0-|
G ---------------------x3*||-----------------0-|
D(0-0-10/12)-0-10/12-----*||-------------------|
A 0-0-10/12--0-10/12------||-0-0-10/12---0-----|
D 0-0-10/12--0-10/12------||-0-0-10/12---0-----|

Riff 2
(plus Rob going "Yeah")
E ----------------------------------------------||
B ----------------------------------------------||
G ------------------------------------------x4-*||
D ---------------------------------------------*||
A -10-7-10-11-12-0-0-10-10-7-10-7-10-11-12------||
D -10-7-10-11-12-0-0-10-10-7-10-7-10-11-12------||

Riff 3     =

E ----------------------||
B ----------------------||
G ------------------x4-*||
D 0-0--0-00-0000000----*||
A 0-0--0-00-0000000-----||
D 0-0--0-00-0000000-----||
      |mute........| =

Riff 4
        s
E --------------||   This the same as Riff 1 but
B --------------||   make the slide last a whole bar
G -----------x4*||
D(0-0-10/12)---*||
A 0-0-10/12-----||
D 0-0-10/12-----||


SONG:
Intro: Voice Sample - =

"yeah I remember her saying"
"I'm already dead" (repeat)
"We want you to get up and hold your hands in some stupid symbol"
"you're gonna get up and scream"
"you're gonna get up and... burn an X in your head!!!"

Riff 1 x2
Verse + Chorus no guitar  then  Riff 2

V1
Who will survive and what will be left of them?
Apocalyptic dreams see the ordinary madness
Who will survive and what will be left of them?
I never lock the dogs when the wolf is in the darkness

Chorus: (repeat)
Come on, come on the motherfucker's on fire, =

He cut through the bone, he cut through the wire

 (w/riff 2) Yeah - Yeah - Yeah - Yeah

V2
Who will survive and what will be left of them?
Into another world number 9 bring the death in
Who will survive and what will be left of them?
Loser take it all getting high on the kick in

Chorus

V3
Who will... etc
Got 24 hours of the psycholic magic
Who will... etc
Illuminate the face and the eye of the serpent

Chorus

Riff 3 x2

Riff 3 with Riff 4  x2

16 bars no guitar

"I'm already dead" - repeat

Riff 2

Riff 3 with Riff 4
Fadeout with lots of samples
____________________________________________________________________________________
4_ Creature Of The Wheel

Tuning: D

Intro:
[--------]
[--------]
[--------]
[--------]
[-44444--]
[-22222--]
  .....

Intro PT. 2:
[---------------------3^-------] }
[---------------------3^-------] }
[------------------------------] }
[------------------------------] }
[-3-2-3-2-3-2-3-2-3-2----------] } REPEAT
[-1-0-1-0-1-0-1-0-1-0----------] }
 				 }   3
[---------------------3^-3^----] }
[---------------------3^-3^----] } TIMES
[------------------------------] }
[------------------------------] }
[-3-2-3-2-3-2-3-2-3-2----------] }
[-1-0-1-0-1-0-1-0-1-0----------] }


[------------------------------]
[------------------------------]
[------------------------------]
[------------------------------]
[-3-2-3-2-3-2-3-2-3-2--44444---]
[-1-0-1-0-1-0-1-0-1-0--22222---]
                       .....

VERSE RIFF:
[------------------------------]
[------------------------------]
[------------------------------] X 4
[------------------------------]
[-3-2-3-2-3-2-3-2-3-2--44444---]
[-1-0-1-0-1-0-1-0-1-0--22222---]
                       .....
CHORUS:        4 Times then:
[--------------------------]--------]
[--------------------------]--------]
[--------------------------]--------]
[---7^---------7^----------]--------]
[-2-5^-7---5-2-5^-7---5----]-44444--]
[-0----5-0-3-0----5-0-3----]-22222--]
         .          .        .....

Repeat the Intro PT. 2.

Repeat VERSE RIFF

Repeat Chorus


Interlude:
[--------]
[--------]
[--------] x 3
[--------]
[-44444--]
[-22222--]
  .....

Repeat Chorus

SOLO

Bridge:
[--------]
[--------]
[--------] x 8
[--------]
[-44444--]
[-22222--]
  .....

Repeat the Intro PT. 2

Repeat VERSE

END:
[--------]
[--------]
[--------] x 4
[--------]
[-44444--]
[-22222--]
  .....

____________________________________________________________________________________
5_ Electric Head PT. 2 (The ecstasy)

Tune 1/2 steps down

Intro			        Play 4X                Play 4X
Riff A_______________________________|
|-------------------|-----------------||-------3-------3-||
|-------------------|-----------------||-------3-------3-||
|-------------------|-----------------||-------3-------3-||
|-4-4-7-7-9-9-10-10-|-4-4-7-7-9-9-3-3-||-2-2-2-0-2-2-2-0-||
|-------------------|-----------------||-2-2-2-2-2-2-2-2-||
|-2-2-5-5-7-7--8--8-|-2-2-5-5-7-7-1-1-||-0-0-0-3-0-0-0-3-||
		  		   	 PM-|    PM-|
		Play 8X                              Play 4X
Verses                 Chorus
Start Of Coda		Riff B__________________________|
|---------------------||-------------|----------------------|
|---------------------||-------------|----------------------|
|---------------------||-------------|----------------------|
|---------------------||---4---4---4-|-x-x-x-x-x-x-x-x-x----|
|-----------------5---||-------------|-x-x-x-x-x-x-x-x-x----|
|-0-0-0-0-0-0-0-0-3-0-||-2---1---0---|-x-x-x-x-x-x-x-x-x----|
  PM------------|   PM                 PM-------------------|
						     Play 4X
Riff C___________|                      Riff D___________|
|---------------------||-Play Riff B--||---------------------|
|---------------------||-4X-----------||---------------------|
|---------------------||-Then---------||---------------------|
|-x-x-x-x-x-x-x-x-(x)-||-Play Riff C--||---11----11----11----|
|-x-x-x-x-x-x-x-x-(x)-||-5X with-(x)--||-9----10----11-------|
|-x-x-x-x-x-x-x-x-(x)-||--------------||---------------------|
 PM----------------------------------------------------------|
                                                     Play 2X
                Synth arr. for gtr.
|-Play Riff A-||-------------------------------------------|
|-6X----------||-------------------------------------------|
|-------------||-------------------------------------------|
|-------------||-------------------------------------------|
|-------------||-------------------------------------------|
|-------------||-0-12-0-0-1-0-12-12-0-12-0-0-12-0-12-12----|
                 PM----------------------------------------|
[ Tab from: http://www.guitartabs.cc/tabs/w/white_zombie/astro_creep_2000_tab.html ]
Coda
Guitar 1
  Riff E (Both Guitars)
|-|------------------|------------------|
| |------------------|------------------|
| |------------------|------------------|
| |-4444444444444444-|-7777777777777777-|
| |------------------|------------------|
| |-2222222222222222-|-5555555555555555-|
|  Gtr. 2 (with wah)
| |------------------|---------------------|
| |-77--77--77--77---|-1010-1010-1010-1010-|
| |------------------|---------------------|
| |-44--44--44--44---|--8-8--8-8--8-8--8-8-|
| |------------------|---------------------|
|-|------------------|---------------------|
                                 Repeat 1 time
                                 End of E Riff
|-|------------------|------------------||
| |------------------|------------------||
| |------------------|------------------||
| |-6666666666666666-|-5555555555555555-||
| |------------------|------------------||
| |-4444444444444444-|-3333333333333333-||
|
| |------------------|------------------||
| |-99--99--99--99---|-88--88--88--88---||
| |------------------|------------------||
| |-66--66--66--66---|-55--55--55--55---||
| |------------------|------------------||
|-|------------------|------------------||

Gtrs. 1+2 play Riff E until fade out
Gtr. 3+4 are playing octaves till end
____________________________________________________________________________________
6_ Grease Paint And Monkey Brains

Dropped D Tuning (i think)

Intro:
                                    x 2
[-----------------------------------]
[---------7^------7^-----7^------7^-]
[---------5^------5^-----5^------5^-]
[-----------------------------------]
[-2-2-2-2----2--2----2-2----2--2----]
[-0-0-0-0----0--0----0-0----0--0----]

Verse (just bass, drums and samples):

Death is on the midway
Gambling with souls
Roulette on the wire
Ace is in the hole
I sink beneath the feeling
Moon is in my hands
A crooked wheel of 21
I just  dont understand ¡NO!

Chorus:

          Laugh
[---------------------------------]
[---------------------------------]
[---------------------------------]
[---------------------------------]
[-----2-2----2-22-----------------]
[-14\-0-0-6^-0-00-5p0-3-3---------]

       Yeah!   drown and
[------------------------------]
[------------------------------]
[------------------------------]
[------------------------------]
[--2-2----2-22-----------------]
[--0-0-6^-0-00-5p0-3-----------]

 Laugh
[---------------------------------]
[---------------------------------]
[---------------------------------]
[---------------------------------]
[-----2-2----2-22-----------------]
[-14\-0-0-6^-0-00-5p0-3-3---------]

       Yeah!   your life it`s over
[------------------------------]
[------------------------------]
[------------------------------]
[------------------------------]
[--2-2----2-22--------2--------]
[--0-0-6^-0-00-5p0-3--0--------]

Verse (no guitar):

Yeah, if god is the dealer ¿why do we never win?
A bloody mix of silk and mood that starts all over again ¡NO!

Repeat chorus:

[---------------------------------]
[---------------------------------]
[---------------------------------]
[---------------------------------] x 4
[-----2-2-9^-7--7-7--7-6-5-3------]
[-14\-0-0-------------------------]

          yeah!   yeah1  yeah!   yeah!
[-----------------------------------]
[---------7^------7^-----7^------7^-]
[---------5^------5^-----5^------5^-]
[-----------------------------------]
[-2-2-2-2----2--2----2-2----2--2----]
[-0-0-0-0----0--0----0-0----0--0----]

SOLO:

[------------------------------------------------]
[------------------------------------------------]
[-14-12------------------------------------------]
[-------12-12-12--12-10--------------7^-0-0------]
[-----------------------12h11h10-10--------------]
[------------------------------------------------]

[---------------------------------------------------]
[---------------------------------------------------]
[-------------------------------6^-6^-----6h5h0-4^--]
[-------------10\---7h5h0---5^--------6\------------]
[-------10----10\-7-------7-------------------------]
[-10-12----12---------------------------------------]

[------------------------------------------------|
[------------------------------------------------|
[-8h9h10-8h9h10-7h8h9-7h8h9-5h6h7-5h6h7-4^-------|
[------------------------------------------------|
[------------------------------------------------|
[------------------------------------------------|

------------------10^--10-10-8-10\-10h9h8-7^--17----15-vibrato]
---5\-5h4h3-5h4h3--------------------------------14-----------]
-6------------------------------------------------------------]
--------------------------------------------------------------]
--------------------------------------------------------------]
--------------------------------------------------------------]

[--------------------------------------]
[---------7^------7^-----7^---------7^-]
[---------5^------5^-----5^---------5^-]
[--------------------------------------]
[-2-2-2-2----2--2----2-2----2--2-------]
[-0-0-0-0----0--0----0-0----0--0-------]

Verse 3:
Clowns they scare the children, roll around the ring
The animals they wanna kill, anyone, ANYTHING!!!!!!!!

         Laugh
[---------------------------------]
[---------------------------------]
[---------------------------------]
[---------------------------------]
[-----2-2-5--2-22-----------------]
[-14\-0-0-3--0-00-5p0-3-3---------]

       Yeah!   drown and
[------------------------------]
[------------------------------]
[------------------------------]
[------------------------------]
[--2-2-5--2-22-----------------]
[--0-0-3--0-00-5p0-3-----------]

 Laugh
[---------------------------------]
[---------------------------------]
[---------------------------------]
[---------------------------------]
[-----2-2-5--2-22-----------------]
[-14\-0-0-3-0-00-5p0-3-3----------]

       Yeah!   your life it`s over
[------------------------------]
[------------------------------]
[------------------------------]
[------------------------------]
[--2-2-5--2-22--------2--------]
[--0-0-3--0-00-5p0-3--0--------]

End:

[----------------------------------------]
[----------------------------------------]
[----------------------------------------]
[----------------------------------------]
[----------------------------------------]
[-0-0--0-0--0-0--0-0--0-0--0-0--0-0--0-0-]
  . .  . .  . .  . .  . .  . .  . .  . .

[------------------------------]
[------------------------------]
[------------------------------]
[------------------------------]
[------------------------------]
[-0--0-0--0-0--0--0-0-0--------]
  .  . .  . .  .  . . .
____________________________________________________________________________________
7_ I, Zombie


Riff 1

P.M.
----------------------------------------------------|
----------------------------------------------------|
----------------------------------------------------|
--2--2--2--2--2--2--2--2--2--2--2--2--2--2--2--2--3-|
--2--2--2--2--2--2--2--2--2--2--2--2--2--2--2--2--3-|
--2--2--2--2--2--2--2--2--2--2--2--2--2--2--2--2--3-|

P.M.
----------------------------------------------------|
----------------------------------------------------|
----------------------------------------------------|
--2--2--2--2--2--2--2--2--2--2--2--2--2--2--2--2--1-|
--2--2--2--2--2--2--2--2--2--2--2--2--2--2--2--2--1-|
--2--2--2--2--2--2--2--2--2--2--2--2--2--2--2--2--1-|


Riff 2:

P.M.
-----------------------------------|
-----------------------------------|
-----------------------------------|
--2--2--2--2--2--2---2--2--2--2--3-|
--2--2--2--2--2--2---2--2--2--2--3-|
--2--2--2--2--2--2---2--2--2--2--3-|

P.M.
-----------------------------------|
-----------------------------------|
-----------------------------------|
--2--2--2--2--2--2---2--2--2--2--1-|
--2--2--2--2--2--2---2--2--2--2--1-|
--2--2--2--2--2--2---2--2--2--2--1-|


Bridge:

-------------------------------------------------------|
-------------------------------------------------------|
-------------------------------------------------------|
-------------------------------------------------------|
-------------------------------------------------------|
--4-4-4-4-4-4-4-4-4-4-4-4/8-8-8-8-8/-10-10-10-10-10-10-|


-----
-----
-----
--2--
--2--
--2--
DIVE


Outro: Bridge Riff then:

-----------------------------------|
-----------------------------------|
-----------------------------------|
--------------------------8--10--8-|
--------------------------8--10--8-|
--4-4-4-4-4-4-4-4-4-4-4-4/8--10--8-|


The Song ends on:

-----
-----
-----
--4--
--4--
--4--
____________________________________________________________________________________
8_ More Human Than Human

Tuning: C# G# E B F# C#

Intro: Synth. Effects with Riff 1

Riff 1:

B |-2-2------------------2-2-|
F#|-2-2------------------2-2-|
C#|-0-0------------------0-0-|

Riff 2
  A steady gradual slide at first but when the notes are close use speed
C#|----3//////////12v----(12)\\\4///////14v---(14)\\\4///////15v---|
G#|----3//////////12v----(12)\\\4///////14v---(14)\\\4///////15v---|
E |----3//////////12v----(12)\\\4///////14v---(14)\\\4///////15v---|
B |----------------------------------------------------------------|
F#|----------------------------------------------------------------|
C#|----------------------------------------------------------------|

C#|--(15)////////17--17-17-17\\\\3---------------------------------|
G#|--(15)////////17-----17-17\\\\3---------------------------------|
E |--(15)////////17--------17\\\\3---------------------------------|
B |----------------------------------------------------------------|
F#|----------------------------------------------------------------|
C#|----------------------------------------------------------------|

Riff 3

C#|3/////////12v--(12)\\\4////////14v--(14)\\\4/////////15v--(15)\\\\\-------|
G#|3/////////12v--(12)\\\4////////14v--(14)\\\4/////////15v--(15)\\\\\-------|
E |3/////////12v--(12)\\\4////////14v--(14)\\\4/////////15v--(15)\\\\\13//17-|
B |-------------------------------------------------------------------13//17-|
F#|--------------------------------------------------------------------------|
C#|--------------------------------------------------------------------------|

----------------------------|
-17\\\-17-(17)\\\\17\\\\\12-|
-17\\\-17-(17)\\\\17\\\\\12-|
----------------------------|
----------------------------|
----------------------------|

slide over fret board
C#|(12)\\\\4/////////14v--(14)\\\\4////////15v---(15)\\\\5////////17---17-|
G#|(12)\\\\4/////////14v--(14)\\\\4////////15v---(15)\\\\5////////17------|
E |(12)\\\\4/////////14v--(14)\\\\4////////15v---(15)\\\\5////////17------|
B |-----------------------------------------------------------------------|
F#|-----------------------------------------------------------------------|
C#|-----------------------------------------------------------------------|

-------3/////////////24\\\\\x--|
-17\\\\3/////////////24\\\\\x--|
-17\\\\3/////////////24\\\\\x--|
-------------------------------|
-------------------------------|
-------------------------------|


reapet Riff 1

Riff 4:

B |--2-2-2222-2-2-2222-2-2-2222-2-2----|
F#|--2-2-2222-2-2-2222-2-2-2222-2-2----|
C#|--0-0-0000-0-0-0000-0-0-0000-0-0----|
      PM <--> Pm  <-->  Pm <-----------|

Riff 2

Riff 3

Riff 1

Riff 4

Outro:

C#|-------5/////-------7//////-------9//////-------11//////-------9//////------17/////-----|
G#|-------5/////-------7//////-------9//////-------11//////-------9//////------17/////-----|
E |-------5/////-------7//////-------9//////-------11//////-------9//////------17/////-----|
B |--2-2----------2-2-----------2-2------------2-2-----------2-2-----------2-2-------------|
F#|--2-2----------2-2-----------2-2------------2-2-----------2-2-----------2-2-------------|
C#|--0-0----------0-0-----------0-0------------0-0-----------0-0-----------0-0-------------|

C#|-----18/////-----20//////--------repeat-------18/////-------20/////-----5/////-----6////|
G#|-----18/////-----20//////--------      -------18/////-------20/////-----5/////-----6////|
E |-----18/////-----20//////--------      -------18/////-------20/////-----5/////-----6////|
B |2-2----------2-2-----------------      --2-2------------2-2----------2-2-------2-2------|
F#|2-2----------2-2-----------------      --2-2------------2-2----------2-2-------2-2------|
C#|0-0----------0-0-----------------      --0-0------------0-0----------0-0-------0-0------|

C#|-----9/////-------11///////------14//////------15//////------18//////-------16//////----|
G#|-----9/////-------11///////------14//////------15//////------18//////-------16//////----|
E |-----9/////-------11///////------14//////------15//////------18//////-------16//////----|
B |2-2----------2-2-------------2-2-----------2-2-----------2-2------------2-2-------------|
F#|2-2----------2-2-------------2-2-----------2-2-----------2-2------------2-2-------------|
C#|0-0----------0-0-------------0-0-----------0-0-----------0-0------------0-0-------------|

C#|------4\\\\\\----------------------------------------------5\\\\\\\-------8\\\\\\-------|
G#|------4\\\\\\------------------4\\\\\\--------4\\\\\\------5\\\\\\\-------8\\\\\\\------|
E |------4\\\\\\-----4\\\\\\------4\\\\\\--------4\\\\\\------5\\\\\\\-------8\\\\\\\------|
B |--2-2---------2-2-4\\\\\\\-2-2-4\\\\\\\--2-2--4\\\\\\\-2-2-----------2-2-----------2-2--|
F#|--2-2---------2-2----------2-2-----------2-2-----------2-2-----------2-2-----------2-2--|
C#|--0-0---------0-0----------0-0-----------0-0-----------0-0-----------0-0-----------0-0--|

-11\\\\\\----14\\\\\-|
-11\\\\\\----14\\\\\-|
-11\\\\\\\---14\\\\\-|
----------2-2--------|
----------2-2--------|
----------0-0--------|

    If you find this riff a little impossible you'd be right because its two guitars so
thought I'd include it so people
    who are fortunate to play either more than one can play this and it sounds real good.
________________________________________________________________________________________
9_ El Phantasmo And The Chicken Run Blast-o-rama


Tune down A minor third (C#, F#, B, E, G#, C#)g
g
INTRO (play 4 times)g
e --------------------------------------------|g
B --------------------------------------------|g
G --------------------------------------------|g
D --3-/-4--------------5--------5--------5----|g
A --1-/-2---3-/-4------3--------3--------3----|g
E ----------1-/-2---0-----0--0-----0--0-------|g
                    .     .  .     .  .

PRE-VERSEg:
e ---------------------------------------------------------------|g
B ---------------------------------------------------------------|g
G ---------------------------------------------------------------|g
D ---------------------------------------------5-5-5-5-6-6-6-6---|g
A -----4----4----4----4----4----4----4----4----5-5-5-5-6-6-6-6---|g
E -2-0h2--0h2--0h2--0h2--0h2--0h2--0h2--0h2--0-3-3-3-3-4-4-4-4---|g
                                                            g
VERSE:
e ------------------|g
B ------------------|g
G ------------------|g
D --3-/-4-----------|g
A --1-/-2--3-/-4----|g
E ---------1-/-2----|g
g

OUTRO:
e ---------------------------------------------------------------------------|g
B ---------------------------------------------------------------------------|g
G ---------------------------------------------------------------------------|g
D ---------------------------------------------------------------------------|g
A --4---4---4---4---4---4---4---4---4---4---4---4---4---4--------------------|g
E --2-0-2-0-2-0-2-0-2-0-2-0-2-0-2-0-2-0-2-0-2-0-2-0-2-0-2--------------------|g
      .   .   .   .   .   .   .   .   .   .   .   .   .


SECOND OUTRO:

e ------------------------|
B ------------------------|
G -----7-7-7-7-8-8-9-9----|
D -----5-5-5-5-6-6-7-7----|
A ------------------------|
E ------------------------|

Ends with Em chord
___________________________________________________________________________
10_ Blur The Technicolor

Tuning: D (Or try Standard)

Note: This song has a lot of effects that makes the song extremely harder to tab.
Use a flanger while playing harmonics sliding your hand from side to side and tell
me later.

Intro:
[----------------------------------------]
[----------------------------------------]
[-10///------10///----10///----\\\\\\\---]
[-10///------10///----10///----\\\\\\\---]
[-10///------10///----10///----\\\\\\\---]
[----------------------------------------]
                 DIVE

Verse riff:
[----------------------------------------]
[----------------------------------------]
[----------------------------------------]
[----------------------------------------]
[-5-----6-----5-----6-----5---6----------]
[-3-0-0-4-0-0-3-0-0-4-0-0-3-0-4-0--------]

Chorus Riff:

[----------------------------------------]
[----------2---3---4---6---7-------------] x 4
[--------0---0---0---0---0---------------]
[-5-5-2----------------------------------]
[-5-5-2----------------------------------]
[-3-3-0----------------------------------]

Repeat verse riff

Repeat chorus

Interlude:

[--------------------------]
[--------------------------] x 8
[--------------------------]
[--------------------------]
[---5---7---5---7--5\4-2---]
[-0-3-0-5-0-3-0-5--3\2-0---]
  .   .   .   .

Bridge:
[-9-x-9-7--9-x-9-11--------]
[-9-x-9-7--9-x-9-11--------]
[-9-x-9-7--9-x-9-11--------]
[--------------------------]
[-------------------REPEAT-]
[--------------------------]

Repeat verse riff

Repeat chorus
_______________________________________________________________
11_ Blood Milk and Sky

Tuning: D

Intro and verse riff:
[--------------------------]
[--------------------------]
[--------------------------]
[--------------------------]
[-0-0-0-0-0--0-0-0-0-0-----]
[-0-0-0-0-0--0-0-0-0-0-----]

The sirens sings a lonely song, of all the wants and hungers
The lust of love a brute desire, the ledge of life goes under
Divide the dream into the flesh, caleidoscope and candle eyes
Empty wings scrape on the soul, but never stop to realize

[----------------------------------]
[----------------------------------]
[----------------------------------]
[-----------------------5---5------]
[-0-0-0-0-0--0-0-0-0-0--5---5------]
[-0-0-0-0-0--0-0-0-0-0--3h0h3------]
  . . . . .  . . . . .

[----------------------------------]
[----------------------------------]
[----------------------------------]
[-----------------------5---5------]
[-0-0-0-0-0--0-0-0-0-0--5---5------]
[-0-0-0-0-0--0-0-0-0-0--3-x-3------]
  . . . . .  . . . . .

Play verse riff:
Animal whisperings, intoxicate the night
Hypnotize the desperate, slow motion light
Wash away into the rain, blood milk and sky
Hollow moons iluminate, and beauty never dies

[----------------------------------]
[----------------------------------]
[----------------------------------]
[-----------------------5---5------]
[-0-0-0-0-0--0-0-0-0-0--5---5------]
[-0-0-0-0-0--0-0-0-0-0--3h0h3------]
  . . . . .  . . . . .

[----------------------------------]
[----------------------------------]
[----------------------------------]
[-----------------------5---5------]
[-0-0-0-0-0--0-0-0-0-0--5---5------]
[-0-0-0-0-0--0-0-0-0-0--3-x-3------]
  . . . . .  . . . . .

Bridge....

[----------------------]
[----------------------] x 8
[----------------------]
[----------------------]
[-0-0--0-0--0-0--0-0---]
[-0-0--0-0--0-0--0-0---]
  . .  . .  . .  . .

Play verse riff:
Running wild, running blind
I breathe the body deep
A thousand years beside myself
I do not sleep
Seduce the world it never screams
Dead water lies
Ride the only one who knows
Beauty never dies...


[----------------------------------]
[----------------------------------]
[----------------------------------]
[-----------------------5---5------]
[-0-0-0-0-0--0-0-0-0-0--5---5------]
[-0-0-0-0-0--0-0-0-0-0--3h0h3------]
  . . . . .  . . . . .

[----------------------------------]
[----------------------------------]
[----------------------------------]
[-----------------------5---5------]
[-0-0-0-0-0--0-0-0-0-0--5---5------]
[-0-0-0-0-0--0-0-0-0-0--3-x-3------]
  . . . . .  . . . . .

Ends with some singing.
_____________________________________________________________________________

OK!
There you go the whole album. No one has tabbed it
I will tab the "La Sexorcisto" Album. While you stick around with this.

I hope this helps ya
Comments