White Stripes - Your Southern Can Is Mine Chords & Tabs

 

Your Southern Can Is Mine Chords & Tabs

White Stripes Chords & Tabs

Version: 1 Type: Tab 0 ratings
1 star 2 stars 3 stars 4 stars 5 stars
comments

Your Southern Can Is Mine Tab

=============================================
Your Southern Can Is Mine - The White Stripes
=============================================
12.14.03
Adis K.
cerrenus@hotmail.com


Tuning: Guitar is tuned Half a step down on every string.

Intro
eb|--------------------------------------------
Bb|--------------------------------------------
Gb|--------------------------------------------
Db|-----------------------------------------2--
Ab|--------0----0--------2---------2--------0--
Eb|--0-2-4----0---4-3-2----0--2-2----2-0--0----


Verse
eb|---------------
Bb|---------------
Gb|--2------------
Db|--2------4--4--  X2
Ab|--0------4--4--
Eb|-----4-3-2-----


eb|------------------------------
Bb|------------------------------
Gb|--2------------------2--------
Db|--2------4--4--2---2-2-------- 
Ab|--0------4--4--2---2-0--------
Eb|-----4-3-2-----0---0----------
[ Tab from: http://www.guitartabs.cc/tabs/w/white_stripes/your_southern_can_is_mine_tab.html ]
Jive to me; your southern can belongs to me...
eb|-----------------------------------------------
Bb|-----------------------------------------------
Gb|--2------------4-4------2-2------4-4-----2--2--
Db|--2------4--4--4-4-2-2--2-2-4-4--4-4-2-2-2--2--
Ab|--0------4--4--2-2-2-2--0-0-4-4--2-2-2-2-0--0--
Eb|-----4-3-2---------0-0------2-2------0-0-------

Ashes to ashes...
eb|-----3--2--3-----3--2--3---------
Bb|-----3--3--3-----3--3--3---------
Gb|--2--0--2--2--2--0--2--2--------- Goes in a loop with above segment
Db|--2--0--0-----2--0--0------------ and repeats.
Ab|--0-----------0------------------
Eb|--------------------------0-2-4--

Last Verse
eb|-------------------------------------------------
Bb|-------------------------------------------------
Gb|--2------------4-4------2-2------4-4-----2--2-2--
Db|--2------4--4--4-4-2-2--2-2-4-4--4-4-2-2-2--2-2--
Ab|--0------4--4--2-2-2-2--0-0-4-4--2-2-2-2-0--0-0--
Eb|-----4-3-2---------0-0------2-2------0-0---------
Comments