White Stripes - When I Hear My Name Chords & Tabs

 

When I Hear My Name Chords & Tabs

White Stripes Chords & Tabs

Version: 4 Type: Tab 0 ratings
1 star 2 stars 3 stars 4 stars 5 stars
comments

When I Hear My Name Tab

   
 -----------------------------------
| When I Hear My Name		    |
| Words and Music by Jack White     |
| Tabbed by Patrick Ferris          |
 -----------------------------------

 | Tab Definitions:
| E5: 022xxx
| A5: x022xx
| B5: x244xx
|  E: 022100
|  h: Hammer onto note
|  p: Pull off of note
|  /: Slide to note
|  b: Bend note (less than a half step)
|  x: Muted string
| 8^: Digital octave shift up (Whammy pedal)
|  8: Return to natural octave

INTRO: P.M.
   E5
e|------------------|
B|------------------|
G|------------------|
D|------------------|
A|-----------x-x-x--|
E|-0-0-0-0-0-x-x-x--|

VERSE 1: Guitar 1
E5 E5 E5 E5 E5
               E5 E5 E5 E5 E5
When I hear my name
             E5 E5 E5 E5 E5
I wanna disappear
            A5 A5 A5 A5 A5
Wa-ah ah-oh
            E5 E5 E5 E5 E5
Wa-ah ah-oh
            B5 B5 B5 B5 B5 B5 B5 B5 B5 B5 B5 B5 B5
Wa-ah ah-oh

BREAK 1: Played 2x

Guitar 2:
   8^              8
e|------------------|
B|-----3------------|
G|-2h4---4p2p0-2p0--|
D|------------------|
A|------------------|
E|------------------|

Guitar 1:
E5 E5 E5 E5 E5

VERSE 2:
When I see my face
I wanna disappear
Wa-ah ah-oh
Wa-ah ah-oh
Wa-ah ah-oh oh
[ Tab from: http://www.guitartabs.cc/tabs/w/white_stripes/when_i_hear_my_name_tab_ver_4.html ]
BREAK 2: Guitar 1
   E
e|--------0---0---0-0-3b-0---0---0--|
B|----------3------------------3----|
G|----------------------------------|
D|----------------------------------|
A|--------------2----------2--------|
E|-0-3b-0-------0----------0--------|

VERSE 3:
Played over words:
   E5                                 A5         E5
e|--------0---0---0-0-3-0---0---0--------3b--------0---0---3b--|
B|----------3-----------------3----------------------3---------|
G|-------------------------------------0------0----------------|
D|-------------------------------------0----0-0----------2-----|
A|--------------2---------2-------2----2----2-2--2-------2-----|
E|-0-3b-0-------0---------0-------0-3b-----------0-------0-----|

When I see my face
I wanna disappear
Wa-oh ah-oh
Wa-oh ah-oh
Mm mm-mm mm

B5

BREAK 3:
E5 chords are played by Guitar 1
All else played by Guitar 2
                                         E5                       E5
-----------------------------------------------0----0--3-0-0---------0-------3-0-0--------|
-----3---------3---------3---------3-------------3b--------------------3-0-0-------3-0-0--|
-2/4---4---2/4---4---2/4---4---2/4---4----------------------------------2b-p0-------------|
---------------------------------------2-2-2-2-2----------------2-2-2-2-2-----------------|
---------------------------------------2-2-2-2-2----------------2-2-2-2-2-----------------|
---------------------------------------0-0-0-0-0----------------0-0-0-0-0-----------------|
   E5
e|-----------------------------|
B|------------3----------------|
G|--------2h4---4p2p0-2p0------|
D|-2-2-2-2-2--------------2p0--|
A|-2-2-2-2-2-------------------|
E|-0-0-0-0-0-------------------|

VERSE 1

E5
Comments